Oops, an error
Loading. Please wait.

White Crosses intro tab

version 1
version 1

Intro

Whole song

Interactive

2,155 views 3 this week
2 commentsread comments
1 2 3 4 5
1 last vote to show rating
add to favorites
×
Save as Personal and add changes to this tab that will be seen only by you. Learn more ›
×
You can save this tab as Personal to edit and correct it or add notes. All changes will be seen only by you. Learn more »
launch autoscroll
font size
0
reset
how to read this tab
guitar tuner
edit
Autoscroll
slow
fast
+/-
esc
set tempo
stop
Difficulty
First ever tab.. not much but it's a great song.

E -------------------------------------------------|
B ----------------------------------------10-8-6-8-|
G -5-7-9-9-995-7--7-5---5--5-7-9-9-995-7-----------|
D --------------------7----------------------------|
A -------------------------------------------------|
E -------------------------------------------------|

E -------------------------------------------------|
B -------------------------------------------------|
G -5-7-9-9-995-7--7-5---5--5-7-9-9-7-5-7-5---5-----|
D --------------------7--------------------7-------|
A -------------------------------------------------|
E -------------------------------------------------|

            
            
Suggest correction
Creating personal tab
Creating personal tab
You can edit any tab online and save it as your Personal.

You can edit, replace or remove any tab part or add personal notes – all changes will be seen only by you.

Personal tabs can be accessed anytime from any device, even offline.
Learn more »
Give kudos to tab author, rate the tab!
1 2 3 4 5
comments
print report bad tab
2 comments total.
0 reply
NuclearPants 40 Jul 04, 2010 12:10 PM

This is nothing but the intro

0 reply
kahnazdahn 10 Jul 20, 2011 05:31 PM

I think it sounds a lot better if you play it:

E --------------------------------------------------|
B ------------------------------------------10-8-6-8-|
G -5-7-9-9-99-7-5--7-5---5--5-7-9-9-99-7-5-----------|
D --------------------7------------------------------|
A ---------------------------------------------------|
E ---------------------------------------------------|


instead of: G -5-7-9-995-7-...etc.

guest
Wanna post a correction for this tab? Suggest correction