Oops, an error
Loading. Please wait.

Wasteland chords

version 2
version 2

Whole song

Interactive

7,016 views 24 this week
3 commentsread comments
1 2 3 4 5
x 10
add to favorites
×
Save as Personal and add changes to this tab that will be seen only by you. Learn more ›
×
You can save this tab as Personal to edit and correct it or add notes. All changes will be seen only by you. Learn more »
launch autoscroll
font size
0
reset
transpose
0
reset
display chords
guitar tuner
edit
Autoscroll
slow
fast
+/-
esc
set tempo
stop
Strumming
There is no strumming pattern for this song yet. and get +5 IQ
This is against the current's most recent release and i'm absolutely IN LOVE! 

Personally i prefer playing the chords like this:

C  x32033 (Cadd9)
Em 022033 (Em7)
G  320033
D  xx0233 (Dsus7) or 200233 (Dsus7/F#)

but you can basically play however you want :)    

Capo 2

[Intro] (this is kinda tricky but try to listen to the song as you learn, it helps!)

e|--------------------------|---------------------------|-----------------------------|
B|-3------------------------|-------7----7h8---8p7----7-|----3------------------------|
G|----------5--4h5----------|---------------------------|-------------5--4h5---5-4----|
D|----5------------5-----5--|----9-----9-----9------9---|-------5------------5-----5--|
A|-------3------------3-----|-7-------------------------|-3--------3------------------|
E|--------------------------|---------------------------|-----------------------------|

e|-----------------------7------|
B|-------7-----7h8-----8-----8--|
G|------------------------------|
D|----9-----9-------9-------9---|
A|-7----------------------------|
E|------------------------------|


[Verse]

 C              Em            G              Em
Have I lost my mind? Is this paradise? Or a darker side?
 C           Em                G                   Em
Candy coated lips, You're the sweetest kiss, But a bad trip


[Pre-Chorus]
             
C               Em                  D
 Changing faces, know the name but I just can't place it
C                 Em                D
 Slurring phrases, took a step but I can't retrace it
C                        D
 You tell me "take this", but I don't wanna wake up in your...


[Chorus]

Em C G      D
Waa--steland
      Em C    G              D
Your waa--steland (I don't wanna wake up in your)
Em C G      D
Waa--steland 
     Em C     G                 D 
Your waa--steland (No, I don't wanna wake up in your)


[Verse]

  C          Em          G                  Em
Twisted fantasy, In your ecstasy, You're no good for me
 C               Em               G                    Em
Just behind the wall, It's not a dream at all, It's a free fall 


[Pre-Chorus]

C               Em                  D
 Changing faces, know the name but I just can't place it
C                 Em                D
 Slurring phrases, took a step but I can't retrace it
C                        D
 You tell me "take this", but I don't wanna wake up in your...


[Chorus]

Em C G      D
Waa--steland
      Em C    G              D
Your waa--steland (I don't wanna wake up in your)
Em C G      D
Waa--steland 
     Em C     G                 D 
Your waa--steland (No, I don't wanna wake up in your)


[Solo]

e|---------------------------|---------------------------|-------------------------|
B|-3-------------------------|-------7----7h8---8p7----7-|----3--------------------|
G|----------5--4h5-----------|---------------------------|-------------5--4--------|
D|----5------------5------5--|----9-----9-----9------9---|-------5-----------5--7--|
A|-------3------------2s3----|-7-------------------------|-3--------3--------------|
E|---------------------------|---------------------------|-------------------------|

e|-------------------7-----|
B|-------7-----8-----------|
G|-------------------------|
D|----9-----9-----9--------|
A|-7-----------------------|
E|-------------------------|

e|---------------------------|---------------------------|-------------------------|
B|-3-------------------------|-------7----7h8---8p7----7-|----3--------------------|
G|----------5--4h5-----------|---------------------------|-------------5--4--------|
D|----5------------5------5--|----9-----9-----9------9---|-------5-----------5--7--|
A|-------3------------2s3----|-7-------------------------|-3--------3--------------|
E|---------------------------|---------------------------|-------------------------|

e|-----------------------7--7-7-|
B|-------7-----7h8-----8--------|
G|------------------------------|
D|----9-----9-------9-----------|
A|-7----------------------------|
E|------------------------------|


[Bridge]
        
C             Em 
Changing faces
C              Em   D 
Slurring phrases 
C             Em 
Nothing changes
C           Em    N.C.
In your waste- I don't wanna wake up in your...


[Chorus] 
        
Em C G      D
Waa--steland
      Em C    G              D
Your waa--steland (I don't wanna wake up in your)
Em C G      D
Waa--steland 
     Em C     G                 D 
Your waa--steland (No, I don't wanna wake up in your wasteland)
C              Em  D
Changing faces    (In your wasteland)
C               Em  D
Slurring phrases    (No I don't wanna wake up in your)
C              Em  D
Nothing changes  
C           Em
In your waste-
N.C.
I don't wanna wake up


***********************************
| h   hammer-on
***********************************

            
            
Suggest correction
Creating personal tab
Creating personal tab
You can edit any tab online and save it as your Personal.

You can edit, replace or remove any tab part or add personal notes – all changes will be seen only by you.

Personal tabs can be accessed anytime from any device, even offline.
Learn more »
comments
print report bad tab
3 comments total.
+1 reply
tp16 479 Mar 29, 2016 11:09 AM

I like your version, it's good, and I like having the tabs in with it too (that's something I haven't got in mine!).
Yours is nice I think because you've gone with a greater variety of chords, whereas in mine I've only got the 3 :P I think they both serve good purposes for people on here though obviously!

+1 reply
vanjav00 256 Mar 30, 2016 12:49 AM

Well thanks, I like yours too, Funny how we managed to make two so different versions of the same song haha xD And i love your account! So many dope ATC tabs! Keep up the good work

0 reply
tp16 479 Mar 30, 2016 02:06 AM

Thanks! :)

guest
You may want to rate the tab now too:
select rating
Wanna post a correction for this tab? Suggest correction