Oops, an error
Loading. Please wait.

See Hell tab

version 1
version 1

Whole song

Interactive

1,322 views 27 this week
no commentswrite comment
1 2 3 4 5
3 more votes to show rating
add to favorites
×
Save as Personal and add changes to this tab that will be seen only by you. Learn more ›
×
You can save this tab as Personal to edit and correct it or add notes. All changes will be seen only by you. Learn more »
launch autoscroll
font size
0
reset
how to read this tab
guitar tuner
edit
Autoscroll
slow
fast
+/-
esc
set tempo
stop
Author
Difficulty
See Hell

Artist: Agent Fresco
Album:  Destrier
Year:   2015

http://www.agentfresco.is/
https://www.facebook.com/agentfresco
https://www.youtube.com/user/agentfresco


Transcribed by mordred91 on 15/09/29

GUITAR PRO 5 Tab also coming on my profile, including Drums, Vocals and more!


Duration Legend
---------------
W - whole
H - half
Q - quarter
E - 8th
S - 16th
. - note dotted


Tablature Legend
----------------
L - tied note
x - dead note
g - grace note
(n) - ghost note
p - pull off
/ -  slide into from below or out of upwards
\ -  slide into from above or out of downwards
T - tapping
^ - brush up
v - brush down


This Song is entirely in 3/4 !!!


0:00 Intro


     S E  E  S S S S S E     E  S S S S S E  E  S    S S S S E  E  S S S S    S E  E  S S S S S E   
E||-----------------------|-----------------------|------------------------|-----------------------|
B||-----------------------|-----------------------|------------------------|-----------------------|
G||----5-------5-5-----5--|-------5-5-----5-------|--5-5-----5-------5-5---|----5-------5-5-----5--|
D||-----------------------|-----------------------|------------------------|-----------------------|
A||-----------------------|-----------------------|------------------------|-----------------------|
E||--5----5--5-----5-5----|--5--5-----5-5----5--5-|------5-5----5--5-----5-|--5----5--5-----5-5----|


  E  S S S S S E  E  S    S S S S E  E  S S S S    S E  E  S S S S S E     E  S S S S S E  E  S  
-----------------------|------------------------|-----------------------|-----------------------|
-----------------------|------------------------|-----------------------|-----------------------|
-------5-5-----5-------|--5-5-----5-------5-5---|----5-------5-5-----5--|-------5-5-----5-------|
-----------------------|------------------------|-----------------------|-----------------------|
-----------------------|------------------------|-----------------------|-----------------------|
--5--5-----5-5----5--5-|------5-5----5--5-----5-|--5----5--5-----5-5----|--5--5-----5-5----5--5-|


0:15 (Intro Part 2)


  S S S S E  E  S S S S    S E  E  S S S S S E     E  S S S S S E  E  S    S S S S E  E  S S S S  
------------------------|-----------------------|-----------------------|------------------------|
------------------------|-----------------------|-------7-7-----7-------|--7-7-----7-------7-7-7-|
--5-5-----5-------5-5---|----4-------4-4-----2--|-----------------------|------------------------|
------------------------|-----------------------|-----------------------|------------------------|
------------------------|-----------------------|--5--5-----5-5----5--5-|------5-5----5--5-------|
------5-5----5--5-----5-|--5----3--3-----3-3----|-----------------------|------------------------|


  S E  E  S S S S S E     E  S S S S S E  E  S    S S S S E  E  S S S S    S E  E  S S S S S E   
-----------------------|-----------------------|------------------------|-----------------------|
-----------------------|-----------------------|--7-7-----7-------7-7---|----7-------7-7-----7--|
----5-------5-5-----5--|-------4-4-----7-------|------------------------|-----------------------|
-----------------------|-----------------------|------------------------|-----------------------|
-----------------------|-----------------------|------5-5----5--5-----5-|--5----5--5-----5-5----|
--5----5--5-----5-5----|--3--3-----3-3----3--3-|------------------------|-----------------------|


  E  S S S S S E  E  S    S S S S E  E  S S S S    S E  E  S S S S S E     E  S S S S S E  E  S  
-----------------------|------------------------|-----------------------|-----------------------|
-----------------------|--8-8-----8-------8-8---|----7-------7-7-----7--|-------7-7-----7-------|
-------5-5-----5-------|------------------------|-----------------------|-----------------------|
--7--7-----7-7---------|------------------------|-----------------------|-----------------------|
-----------------------|------7-7----7--7-----7-|-------5--5-----5-5----|--6--6-----6-6----6--6-|
------------------5--5-|------------------------|--7--------------------|-----------------------|


  S S S S E  E  S S S S    S E  E  S S S S S E     E  S S S S S E  E  S    S S S S E  E  S S S S  
------------------------|-----------------------|-----------------------|------------------------|
------------------------|-----------------------|-----------------------|------------------------|
--5-5-----5-------5-5---|----5-------5-5-----5--|-------5-5-----5-------|--5-5-----5-------5-5---|
------------------------|-----------------------|-----------------------|------------------------|
------------------------|--3----3--3-----3-3----|-----------------------|------------------------|
------5-5----5--5-----5-|-----------------------|--5--5-----5-5----5--5-|------5-5----5--5-----5-|


0:46 (Verse) [electric guitar:]


  S S S S S S E  S S S S    S S S E  S S S S S S S    E  S S S S S S S E  S    S S S S S S E  S S S S  
-------------------------|-------------------------|------------------------|-------------------------|
-------------------------|-------------------------|------------------------|-------------------------|
-------------------------|-------------------------|------------------------|-------------------------|
-------------------------|-------------------------|------------------------|-------------------------|
-------------------------|-------------------------|--5--5-----5-5-----5--5-|------5-5-----5--5-------|
------5-5-----5--5-----5-|--5-----3--3-----3-3-----|------------------------|-------------------------|


  S S S E  S S S S S S S    E  S S S S S S S E  S    S S S S S S E  S S S S    S S S E  S S S S S S S  
-------------------------|------------------------|-------------------------|-------------------------|
-------------------------|------------------------|-------------------------|-------------------------|
-------------------------|------------------------|-------------------------|-------------------------|
-------------------------|------------------------|-------------------------|-------------------------|
-------------------------|------------------------|------5-5-----5--5-----5-|--5-----5--5-----5-5-----|
--5-----5--5-----5-5-----|--3--3-----3-3-----3--3-|-------------------------|-------------------------|


0:46 (Verse) [acoustic guitar:]


  ^  ^ v ^ v ^  ^ v ^ v    ^  ^ v ^ v ^  ^ v ^ v    ^  ^ v ^ v ^  ^ v ^ v    ^  ^ v ^ v ^  ^ v ^ v  
  E  S S S S E  S S S S    E  S S S S E  S S S S    E  S S S S E  S S S S    E  S S S S E  S S S S  
------------------------|------------------------|------------------------|------------------------|
--5--5-5-5-5-5--5-5-5-5-|--3--3-3-3-3-3--3-3-3-3-|--7--7-7-7-7-7--7-7-7-7-|--7--7-7-7-7-7--7-7-7-7-|
--5--5-5-5-5-5--5-5-5-5-|--4--4-4-4-4-4--4-4-4-4-|--7--7-7-7-7-7--7-7-7-7-|--7--7-7-7-7-7--7-7-7-7-|
--7--7-7-7-7-7--7-7-7-7-|--5--5-5-5-5-5--5-5-5-5-|--7--7-7-7-7-7--7-7-7-7-|--7--7-7-7-7-7--7-7-7-7-|
--7--7-7-7-7-7--7-7-7-7-|--5--5-5-5-5-5--5-5-5-5-|--5--5-5-5-5-5--5-5-5-5-|--5--5-5-5-5-5--5-5-5-5-|
--5--5-5-5-5-5--5-5-5-5-|--3--3-3-3-3-3--3-3-3-3-|------------------------|------------------------|


  ^  ^ v ^ v ^  ^ v ^ v    ^  ^ v ^ v ^  ^ v ^ v    ^  ^ v ^ v ^  ^ v ^ v    ^  ^ v ^ v ^  ^ v ^ v  
  E  S S S S E  S S S S    E  S S S S E  S S S S    E  S S S S E  S S S S    E  S S S S E  S S S S  
------------------------|------------------------|------------------------|------------------------|
--5--5-5-5-5-5--5-5-5-5-|--3--3-3-3-3-3--3-3-3-3-|--7--7-7-7-7-7--7-7-7-7-|--7--7-7-7-7-7--7-7-7-7-|
--5--5-5-5-5-5--5-5-5-5-|--4--4-4-4-4-4--4-4-4-4-|--7--7-7-7-7-7--7-7-7-7-|--7--7-7-7-7-7--7-7-7-7-|
--7--7-7-7-7-7--7-7-7-7-|--5--5-5-5-5-5--5-5-5-5-|--7--7-7-7-7-7--7-7-7-7-|--7--7-7-7-7-7--7-7-7-7-|
--7--7-7-7-7-7--7-7-7-7-|--5--5-5-5-5-5--5-5-5-5-|--5--5-5-5-5-5--5-5-5-5-|--5--5-5-5-5-5--5-5-5-5-|
--5--5-5-5-5-5--5-5-5-5-|--3--3-3-3-3-3--3-3-3-3-|------------------------|------------------------|


1:01 (Verse 2) [electric guitar:]


  E  S S S S S E  E  S    S S S S E  E  S S S S    S E  E  S S S S S E     E  S S S S S E  E  S  
-----------------------|------------------------|-----------------------|-----------------------|
-----------------------|--8-8-----8-------8-8---|----7-------7-7-----7--|-------7-7-----7-------|
-------5-5-----5-------|------------------------|-----------------------|-----------------------|
--7--7-----7-7---------|------------------------|-----------------------|-----------------------|
-----------------------|------7-7----7--7-----7-|--5----5--5-----5-5----|--6--6-----6-6----6--6-|
------------------5--5-|------------------------|-----------------------|-----------------------|


  S S S S E  E  S S S S    S E  E  S S S S S E     E  S S S S S E  E  S    S S S S E  S S S S S S  
------------------------|-----------------------|-----------------------|-------------------------|
------------------------|----5-------5-5-----5--|-----------------------|-------------x-x-x-x-x-x-|
--5-5-----5-------5-5---|-----------------------|-------5-5-----5-------|--5-5-----5--x-x-x-x-x-x-|
------------------------|-----------------------|-----------------------|-------------x-x-x-x-x-x-|
------------------------|--3----3--3-----3-3----|-----------------------|-------------x-x-x-x-x-x-|
------5-5----5--5-----5-|-----------------------|--5--5-----5-5----5--5-|------5-5----------------|


1:01 (Verse 2) [acoustic guitar:]


      ^  ^ v ^ v    ^  ^ v ^ v ^  ^ v ^ v    ^  ^ v ^ v ^  ^ v ^ v    ^  ^ v ^ v ^  ^ v ^ v
 Q.   E  S S S S    E  S S S S E  S S S S    E  S S S S E  S S S S    E  S S S S E  S S S S  
-----------------|------------------------|------------------------|------------------------|
------5--5-5-5-5-|--8--8-8-8-8-8--8-8-8-8-|--7--7-7-7-7-7--7-7-7-7-|--7--7-7-7-7-7--7-7-7-7-|
------5--5-5-5-5-|--9--9-9-9-9-9--9-9-9-9-|--7--7-7-7-7-7--7-7-7-7-|--8--8-8-8-8-8--8-8-8-8-|
------7--7-7-7-7-|--9--9-9-9-9-9--9-9-9-9-|--7--7-7-7-7-7--7-7-7-7-|--7--7-7-7-7-7--7-7-7-7-|
------7--7-7-7-7-|--7--7-7-7-7-7--7-7-7-7-|--5--5-5-5-5-5--5-5-5-5-|--6--6-6-6-6-6--6-6-6-6-|
------5--5-5-5-5-|------------------------|------------------------|------------------------|


 ^  ^ v ^ v ^  ^ v ^ v     ^    ^   v   ^   v   ^    ^   v   ^   v     ^  ^ v ^ v ^  ^ v ^ v    ^  ^ v ^ v
 E  S S S S E  S S S S     E    S   S   S   S   E    S   S   S   S     E  S S S S E  S S S S    E  S S S S Q.
-----------------------|--------------------------------------------|------------------------|----------------|
-5--5-5-5-5-5--5-5-5-5-|--------------------------------------------|--5--5-5-5-5-5--5-5-5-5-|--5--5-5-5-5----|
-5--5-5-5-5-5--5-5-5-5-|---9----9---9---9---9---9----9---9---9---9--|--5--5-5-5-5-5--5-5-5-5-|--5--5-5-5-5----|
-7--7-7-7-7-7--7-7-7-7-|--10---10--10--10--10--10---10--10--10--10--|--7--7-7-7-7-7--7-7-7-7-|--7--7-7-7-7----|
-7--7-7-7-7-7--7-7-7-7-|--10---10--10--10--10--10---10--10--10--10--|--7--7-7-7-7-7--7-7-7-7-|--7--7-7-7-7----|
-5--5-5-5-5-5--5-5-5-5-|---8----8---8---8---8---8----8---8---8---8--|--5--5-5-5-5-5--5-5-5-5-|--5--5-5-5-5----|


1:16 (Pre-Chorus)


   S  S  S  S  S  S  E.   E.     E.  E.  E.  E.     Q.     Q.         S  S  S  S  S  S  S  S  S  S  S  S  
------------------------------|------------------|----------------|--------------------------------------|
--10-10-10-10-10-10-10---10---|--5---5---8---8---|--1------1------|--12-12-12-12-12-12-12-12-12-12-12-12-|
------------------------------|------------------|--2------2------|--------------------------------------|
--10-10-10-10-10-10-10---10---|--5---5---9---9---|--2------2------|--12-12-12-12-12-12-12-12-12-12-12-12-|
---8--8--8--8--8--8--8----8---|--3---3---7---7---|--0------0------|--10-10-10-10-10-10-10-10-10-10-10-10-|
------------------------------|------------------|----------------|--------------------------------------|


   S  S  S  S  S  S  E.   E.     E.  E.  E.  E.      E.   E.   E.   E.      E   S S S S  S  S  S  S  S  S  
------------------------------|------------------|----------------------|---------------------------------|
--10-10-10-10-10-10-10---10---|--5---5---8---8---|--13---13---12---12---|--10--10-x-x-x-10-10-10-10-10-10-|
------------------------------|------------------|----------------------|---------x-x-x-------------------|
--10-10-10-10-10-10-10---10---|--5---5---9---9---|--14---14---12---12---|--10--10-x-x-x-10-10-10-10-10-10-|
---8--8--8--8--8--8--8----8---|--3---3---7---7---|--12---12---10---10---|---8---8-x-x-x--8--8--8--8--8--8-|
------------------------------|------------------|----------------------|---------------------------------|


1:32 (Verse 2) [--> pretty much as in 1:01]


  E  S S S S S E  E  S    S S S S E  E  S S S S    S E  E  S S S S S E     E  S S S S S E  E  S  
-----------------------|------------------------|-----------------------|-----------------------|
-----------------------|--8-8-----8-------8-8---|----7-------7-7-----7--|-------7-7-----7-------|
-------5-5-----5-------|------------------------|-----------------------|-----------------------|
--7--7-----7-7---------|------------------------|-----------------------|-----------------------|
-----------------------|------7-7----7--7-----7-|--7----5--5-----5-5----|--6--6-----6-6----6--6-|
------------------5--5-|------------------------|-----------------------|-----------------------|


  S S S S E  E  S S S S    S E  E  S S S S S E     E  S S S S S E  E  S    S S S S E  S S S S S S  
------------------------|-----------------------|-----------------------|-------------------------|
------------------------|----5-------5-5-----5--|-----------------------|-------------x-x-x-8-8-8-|
--5-5-----5-------5-5---|-----------------------|-------5-5-----5-------|--5-5-----5--5-5-5-------|
------------------------|-----------------------|-----------------------|-------------7-7-7-9-9-9-|
------------------------|--3----3--3-----3-3----|-----------------------|-------------x-x-x-7-7-7-|
------5-5----5--5-----5-|-----------------------|--5--5-----5-5----5--5-|------5-5----------------|


1:47 (Pre-Chorus) [--> 1:16]


2:02 (Chorus)


  S S S S S S E.  E.     S S S S E  E.  E  S    Q.     Q    S S      S  S  S  S  S  S  S  S  S  S  S  S  
--0-0-0-0-0-0-0---0---|----------------------|---------0----L-L--|---0--0--0--0--0--0--0--0--0--0--0--0-|
--6-6-6-6-6-6-6---6---|----------------------|---------0----L-L--|---0--0--0--0--0--0--0--0--0--0--0--0-|
--0-0-0-0-0-0-0---0---|--5-5-5-5----5---5----|--4------4----L-LS-|--16-16-16-16-16-16-16-16-16-16-16-16-|
--x-x-x-x-x-x-x---x---|--0-0-0-0----0---0----|--0------L----L-L--|---0--0--0--0--0--0--0--0--0--0--0--0-|
--5-5-5-5-5-5-5---5---|--x-x-x-x----x---x----|--x----------------|---x--x--x--x--x--x--x--x--x--x--x--x-|
----------------------|--5-5-5-5----5---5----|--3------L----L-LS-|--15-15-15-15-15-15-15-15-15-15-15-15-|


  S S S S S S E.  E.     E.  E  S  E.   E  S    Q.     Q    S S      S  S  S  S  S  S  S E.   E   
--0-0-0-0-0-0-0---0---|------------0----0----|---------0----L-L--|---0--0--0--0--0--0--0---------|
--6-6-6-6-6-6-6---6---|------------0----0----|---------0----L-L--|---0--0--0--0--0--0--0---------|
--0-0-0-0-0-0-0---0---|--5---5-----9----9----|--4------4----L-LS-|--16-16-16-16-16-16-16-L\------|
--x-x-x-x-x-x-x---x---|--0---0-----0----0----|--0------L----L-L--|---0--0--0--0--0--0--0---------|
--5-5-5-5-5-5-5---5---|--x---x-----x----x----|--x----------------|---x--x--x--x--x--x--x---------|
----------------------|--5---5-----8----8----|--3------L----L-LS-|--15-15-15-15-15-15-15-L\------|


2:18 (Verse) [--> 0:46]


2:33 (Verse 2) [--> 1:01]


2:48 (Bridge) [--> same as Intro]


  S E  E  S S S S S E     E  S S S S S E  E  S    S S S S E  E  S S S S    S E  E  S S S S S E   
-----------------------|-----------------------|------------------------|-----------------------|
-----------------------|-----------------------|------------------------|-----------------------|
----5-------5-5-----5--|-------5-5-----5-------|--5-5-----5-------5-5---|----5-------5-5-----5--|
-----------------------|-----------------------|------------------------|-----------------------|
-----------------------|-----------------------|------------------------|-----------------------|
--5----5--5-----5-5----|--5--5-----5-5----5--5-|------5-5----5--5-----5-|--5----5--5-----5-5----|


2:56 (Pre-Chorus) live Tóti played sooomething like this [but there's also a guitar as in 1:16 and 1:47]:


   S  S  S  S  S  S  E.   E.     E.  E.  E.  E.     Q.     Q.        S S S S S S S S S S S S  
------------------------------|------------------|----------------|--------------------------|
--10-10-10-10-10-10-10---10---|--5---5---8---8---|--1------1------|--0-0-0-0-0-0-0-0-0-0-0-0-|
------------------------------|------------------|--2------2------|--0-0-0-0-0-0-0-0-0-0-0-0-|
--10-10-10-10-10-10-10---10---|--5---5---9---9---|--2------2------|--0-0-0-0-0-0-0-0-0-0-0-0-|
---8--8--8--8--8--8--8----8---|--3---3---7---7---|--0------0------|--2-2-2-2-2-2-2-2-2-2-2-2-|
------------------------------|------------------|----------------|--3-3-3-3-3-3-3-3-3-3-3-3-|


  S S S S S S E.  E.     E.  E.  E.  E.     E.  E.  E.  E.     E  S S S S S S S S S S   
----------------------|------------------|------------------|-------------------------|
--1-1-1-1-1-1-1---1---|--1---1---0---0---|--1---1-----------|--1--1-x-x-x-1-1-1-1-1-1-|
--2-2-2-2-2-2-2---2---|--0---0---0---0---|--2---2---0---0---|--2--2-x-x-x-2-2-2-2-2-2-|
--3-3-3-3-3-3-3---3---|--2---2---2---2---|--2---2---0---0---|--3--3-x-x-x-3-3-3-3-3-3-|
--3-3-3-3-3-3-3---3---|--3---3---2---2---|--0---0---2---2---|--3--3-x-x-x-3-3-3-3-3-3-|
----------------------|----------3---3---|----------3---3---|-------------------------|


3:11 (Chorus) [---> 2:02] 3 x !!!


3:57 (Outro) 

Note: Hold the G on the low E string and tap and pull of with your right index finger (in measure 3 and 4)

                                                         T                                      
   E   E  E  Q.        Q.     Q.        Q.     Q.        Q.      Q.         E    E   E  Q.      
--------------------|----------------|----------------|-----------------|----------------------|
-------------6------|--L-------------|----------------|-----------------|---------------6------|
----------7---------|---------5------|--L------4------|--2p------0------|------------7---------|
-------7------------|----------------|----------------|-----------------|-------(7)------------|
--(5)---------------|----------------|----------------|-----------------|--(5)-----------------|
--------------------|--5-------------|--3-------------|--L--------------|----------------------|


  Q.     Q.        Q.     Q.        W                 W
----------------|----------------|-----------------|----------------||
--L-------------|----------------|-----------------|----------------||
---------5------|--L------4------|-----------------|----------------||
----------------|----------------|-----------------|----------------||
----------------|----------------|-/10-------------|--L-------------||
--5-------------|--3-------------|-----------------|----------------||


Have fun and BUY THE ALBUM if you haven't yet !!!

***

IF YOU HAVE ANY SUGGESTIONS, TELL ME !!!

            
            
Suggest correction
Creating personal tab
Creating personal tab
You can edit any tab online and save it as your Personal.

You can edit, replace or remove any tab part or add personal notes – all changes will be seen only by you.

Personal tabs can be accessed anytime from any device, even offline.
Learn more »
Give kudos to tab author, rate the tab!
1 2 3 4 5
comments
print report bad tab
guest
You may want to rate the tab now too:
select rating
Wanna post a correction for this tab? Suggest correction