Oops, an error
Loading. Please wait.

Triangles tab

7 views 1 this week
no commentswrite comment
1 2 3 4 5
3 more votes to show rating
add to favorites
×
Save as Personal and add changes to this tab that will be seen only by you. Learn more ›
×
You can save this tab as Personal to edit and correct it or add notes. All changes will be seen only by you. Learn more »
launch autoscroll
font size
0
reset
how to read this tab
guitar tuner
edit
Autoscroll
slow
fast
+/-
esc
set tempo
stop
Tabbed By Logan Stephenson

Tuning = Drop A

*=palm mute

[Verse 1]
B|---------------------------------------------------------------------------|
G|---------------------------------------------------------------------------|
D|---------------------------------------------------------------------------|
A|---------------------------------------------------------------------------|
E|-----------------------------------------------5-8---0-0---7-5-------------|
A|-0-0---0-0---0-0-12---0-0---0-0---0-0-0-0----------------------7-----------|
   *     *     * *      *     *     * * *              * *
B|---------------------------------------------------------------------------|
G|---------------------------------------------------------------------------|
D|---------------------------------------------------------------------------|
A|---------------------------------------------------------------------------|
E|---------------------------------------------------------------------------|
A|-0-0---0-0---0-0-12---0-0---0-0---0-0-0-0------7-7-7-7-10-10-10-10---------|
   *     *     * *      *     *     * * *
B|---------------------------------------------------------------------------|
G|---------------------------------------------------------------------------|
D|---------------------------------------------------------------------------|
A|---------------------------------------------------------------------------|
E|-----------------------------------------------5-8---0-0---7-5-------------|
A|-0-0---0-0---0-0-12---0-0---0-0---0-0-0-0----------------------7-----------|
   *     *     * *      *     *     * * *              * *
B|---------------------------------------------------------------------------|
G|---------------------------------------------------------------------------|
D|---------------------------------------------------------------------------|
A|---------------------------------------------------------------------------|
E|---------------------------------------------------------------------------|
A|-0-0---0-0---0-0-12---0-0---0-0---0-0-0-0------7-7-7-7-10-10-10-10---------|
   *     *     * *      *     *     * * *
B|---------------------------------------------------------------------------|
G|---------------------------------------------------------------------------|
D|---------------------------------------------------------------------------|
A|---------------------------------------------------------------------------|
E|----0-0----0-0----0-0-0-0----0----0-0----0-0----0-0----0-0----0------------|
A|----0-0----0-0----0-0-0-0----0----0-0----0-0----0-0----0-0----0------------|
      * *    * *    * * * *    *    * *    * *    * *    * *    *
B|---------------------------------------------------------------------------|
G|---------------------------------------------------------------------------|
D|---------------------------------------------------------------------------|
A|---------------------------------------------------------------------------|
E|----0-0----0-0----0-0-0-0----0----0-0----0-0----0-0----0--0--0--0----------|
A|----0-0----0-0----0-0-0-0----0----0-0----0-0----0-0----1--1--1--1----------|
      * *    * *    * * * *    *    * *    * *    * *    *  *  *  * 
B|---------------------------------------------------------------------------|
G|---------------------------------------------------------------------------|
D|---------------------------------------------------------------------------|
A|---------------------------------------------------------------------------|
E|----0-0----0-0----0-0-0-0----0----0-0----0-0----0-0----0-0----0------------|
A|----0-0----0-0----0-0-0-0----0----0-0----0-0----0-0----0-0----0------------|
      * *    * *    * * * *    *    * *    * *    * *    * *    *
B|---------------------------------------------------------------------------|
G|---------------------------------------------------------------------------|
D|---------------------------------------------------------------------------|
A|---------------------------------------------------------------------------|
E|----0-0----0-0----0-0-0-0----0----0-0----0-0----0-0----0--0--0--0----------|
A|----0-0----0-0----0-0-0-0----0----0-0----0-0----0-0----1--1--1--1----------|
      * *    * *    * * * *    *    * *    * *    * *    *  *  *  * 
B|---------------------------------------------------------------------------|
G|---------------------------------------------------------------------------|
D|---------------------------------------------------------------------------|
A|---------------------------------------------------------------------------|
E|-7---------------------0-7--------7----------------------------------------|
A|---8-0----0-0----0-7-8--------------8-0----0-0----0-5---5-5---5-5----------|
            *      *     *                   *      *     *     *
B|---------------------------------------------------------------------------|
G|---------------------------------------------------------------------------|
D|---------------------------------------------------------------------------|
A|---------------------------------------------------------------------------|
E|-7---------------------0-7-------------------------------------------------|
A|---8-0----0-0----0-7-8------------5-5-5-5-8-8-8-8-10-10-10-10-7-7-7-7------|
            *      *     *
B|---------------------------------------------------------------------------|
G|---------------------------------------------------------------------------|
D|---------------------------------------------------------------------------|
A|---------------------------------------------------------------------------|
E|-7---------------------0-7--------7----------------------------------------|
A|---8-0----0-0----0-7-8--------------8-0----0-0----0-5---5-5---5-5----------|
            *      *     *                   *      *     *     *
B|---------------------------------------------------------------------------|
G|---------------------------------------------------------------------------|
D|---------------------------------------------------------------------------|
A|---------------------------------------------------------------------------|
E|-7---------------------0-7-------------------------------------------------|
A|---8-0----0-0----0-7-8------------5-5-5-5-8-8-8-8-10-10-10-10-7-7-7-7------|
            *      *     *
B|---------------------------------------------------------------------------|
G|---------------------------------------------------------------------------|
D|---------------------------------------------------------------------------|
A|---------------------------------------------------------------------------|
E|-7---------------------0-7--------7----------------------------------------|
A|---8-0----0-0----0-7-8--------------8-0----0-0----0-5---5-5---5-5----------|
            *      *     *                   *      *     *     *
B|---------------------------------------------------------------------------|
G|---------------------------------------------------------------------------|
D|---------------------------------------------------------------------------|
A|--------------------------------------------------7------------------------|
E|-7---------------------0-7--------7---------------7------------------------|
A|---8-0----0-0----0-7-8--------------8-0----0-0----7------------------------|
            *      *     *                   *
[Chorus]
B|---------------------------------------------------------------------------|
G|---------------------------------------------------------------------------|
D|---------------------------------------------------------------------------|
A|-3-3-3-3-3-3-3-3-3-3-3-3-3-3-3-3-7-7-7-7-7-7-7-7-10-10-10-10-10-10-10-10---|
E|-3-3-3-3-3-3-3-3-3-3-3-3-3-3-3-3-7-7-7-7-7-7-7-7-10-10-10-10-10-10-10-10---|
A|-3-3-3-3-3-3-3-3-3-3-3-3-3-3-3-3-7-7-7-7-7-7-7-7-10-10-10-10-10-10-10-10---|

B|---------------------------------------------------------------------------|
G|---------------------------------------------------------------------------|
D|---------------------------------------------------------------------------|
A|---2-2-2-2-2-2-2-2-2-2-2-2-2-2-2-2-3---3-3-3-3-3-3-3---0-0-0-0-0-0-0-0-----|
E|---2-2-2-2-2-2-2-2-2-2-2-2-2-2-2-2-3---3-3-3-3-3-3-3---0-0-0-0-0-0-0-0-----|
A|---2-2-2-2-2-2-2-2-2-2-2-2-2-2-2-2-3---3-3-3-3-3-3-3---0-0-0-0-0-0-0-0-----|

B|---------------------------------------------------------------------------|
G|---------------------------------------------------------------------------|
D|---------------------------------------------------------------------------|
A|-3-3-3-3-3-3-3-3-3-3-3-3-3-3-3-3-7-7-7-7-7-7-7-7-10-10-10-10-10-10-10-10---|
E|-3-3-3-3-3-3-3-3-3-3-3-3-3-3-3-3-7-7-7-7-7-7-7-7-10-10-10-10-10-10-10-10---|
A|-3-3-3-3-3-3-3-3-3-3-3-3-3-3-3-3-7-7-7-7-7-7-7-7-10-10-10-10-10-10-10-10---|

B|---------------------------------------------------------------------------|
G|---------------------------------------------------------------------------|
D|---------------------------------------------------------------------------|
A|---2-2-2-2-2-2-2-2-2-2-2-2-2-2-2-2-3---3-3-3-3-3-3-3---0-0-0-0-0-0-0-0-----|
E|---2-2-2-2-2-2-2-2-2-2-2-2-2-2-2-2-3---3-3-3-3-3-3-3---0-0-0-0-0-0-0-0-----|
A|---2-2-2-2-2-2-2-2-2-2-2-2-2-2-2-2-3---3-3-3-3-3-3-3---0-0-0-0-0-0-0-0-----|

[Verse 2]
B|---------------------------------------------------------------------------|
G|---------------------------------------------------------------------------|
D|---------------------------------------------------------------------------|
A|---------------------------------------------------------------------------|
E|-----------------------------------------------5-8---0-0---7-5-------------|
A|-0-0---0-0---0-0-12---0-0---0-0---0-0-0-0----------------------7-----------|
   *     *     * *      *     *     * * *              * *
B|---------------------------------------------------------------------------|
G|---------------------------------------------------------------------------|
D|---------------------------------------------------------------------------|
A|---------------------------------------------------------------------------|
E|---------------------------------------------------------------------------|
A|-0-0---0-0---0-0-12---0-0---0-0---0-0-0-0------7-7-7-7-10-10-10-10---------|
   *     *     * *      *     *     * * *
B|---------------------------------------------------------------------------|
G|---------------------------------------------------------------------------|
D|---------------------------------------------------------------------------|
A|---------------------------------------------------------------------------|
E|-----------------------------------------------5-8---0-0---7-5-------------|
A|-0-0---0-0---0-0-12---0-0---0-0---0-0-0-0----------------------7-----------|
   *     *     * *      *     *     * * *              * *
B|---------------------------------------------------------------------------|
G|---------------------------------------------------------------------------|
D|---------------------------------------------------------------------------|
A|---------------------------------------------------------------------------|
E|---------------------------------------------------------------------------|
A|-0-0---0-0---0-0-12---0-0---0-0---0-0-0-0------7-7-7-7-10-10-10-10---------|
   *     *     * *      *     *     * * *
B|---------------------------------------------------------------------------|
G|---------------------------------------------------------------------------|
D|---5-5-5-8-----------------------------------------------------------------|
A|---------------------------------------------------------------------------|
E|---3-3-3-6-----------------------------------------------------------------|
A|-------------0-0---0-0---0-5-6-0---0-0---0-1---0---0-0---0-4---0-----------|
               *     *     *         *     *         *     *
B|---------------------------------------------------------------------------|
G|---------------------------------------------------------------------------|
D|---5-5-5-8-----------------------------------------------------------------|
A|---------------------------------------------------------------------------|
E|---3-3-3-6-----------------------------------------------------------------|
A|-------------0-0---0-0---0-5-6-0---0-0---0-1---0---0-0---0-4---0-----------|
               *     *     *         *     *         *     *
B|---------------------------------------------------------------------------|
G|---------------------------------------------------------------------------|
D|---5-5-5-8-----------------------------------------------------------------|
A|---------------------------------------------------------------------------|
E|---3-3-3-6-----------------------------------------------------------------|
A|-------------0-0---0-0---0-5-6-0---0-0---0-1---0---0-0---0-4---0-----------|
               *     *     *         *     *         *     *
B|---------------------------------------------------------------------------|
G|---------------------------------------------------------------------------|
D|---5-5-5-8-----------------------------------------------------------------|
A|---------------------------------------------------------------------------|
E|---3-3-3-6-----------------------------------------------------------------|
A|-------------0-0---0-0---0-5-6-0---0-0---0-1---0---0-0---0-4---0-----------|
               *     *     *         *     *         *     *
B|---------------------------------------------------------------------------|
G|---------------------------------------------------------------------------|
D|---5-5-5-8-----------------------------------------------------------------|
A|---------------------------------------------------------------------------|
E|---3-3-3-6-----------------------------------------------------------------|
A|-------------0-0---0-0---0-5-6-0---0-0---0-1---0---0-0---0-4---0-----------|
               *     *     *         *     *         *     *
B|---------------------------------------------------------------------------|
G|---------------------------------------------------------------------------|
D|---5-5-5-8-----------------------------------------------------------------|
A|---------------------------------------------------------------------------|
E|---3-3-3-6-----------------------------------------------------------------|
A|-------------0-0---0-0---0-5-6-0---0-0---0-1---0---0-0---0-4---0-----------|
               *     *     *         *     *         *     *
B|---------------------------------------------------------------------------|
G|---------------------------------------------------------------------------|
D|---------------------------------------------------------------------------|
A|---------------------------------------------------------------------------|
E|----0-0----0-0----0-0-0-0----0----0-0----0-0----0-0----0-0----0------------|
A|----0-0----0-0----0-0-0-0----0----0-0----0-0----0-0----0-0----0------------|
      * *    * *    * * * *    *    * *    * *    * *    * *    *
B|---------------------------------------------------------------------------|
G|---------------------------------------------------------------------------|
D|---------------------------------------------------------------------------|
A|---------------------------------------------------------------------------|
E|----0-0----0-0----0-0-0-0----0----0-0----0-0----0-0----0--0--0--0----------|
A|----0-0----0-0----0-0-0-0----0----0-0----0-0----0-0----1--1--1--1----------|
      * *    * *    * * * *    *    * *    * *    * *    *  *  *  * 
B|---------------------------------------------------------------------------|
G|---------------------------------------------------------------------------|
D|---------------------------------------------------------------------------|
A|---------------------------------------------------------------------------|
E|----0-0----0-0----0-0-0-0----0----0-0----0-0----0-0----0-0----0------------|
A|----0-0----0-0----0-0-0-0----0----0-0----0-0----0-0----0-0----0------------|
      * *    * *    * * * *    *    * *    * *    * *    * *    *
B|---------------------------------------------------------------------------|
G|---------------------------------------------------------------------------|
D|---------------------------------------------------------------------------|
A|---------------------------------------------------------------------------|
E|----0-0----0-0----0-0-0-0----0----0-0----0-0----0-0----0--0--0--0----------|
A|----0-0----0-0----0-0-0-0----0----0-0----0-0----0-0----1--1--1--1----------|
      * *    * *    * * * *    *    * *    * *    * *    *  *  *  * 

[Pre Breakdown]
B|---------------------------------------------------------------------------|
G|---------------------------------------------------------------------------|
D|---------------------------------------------------------------------------|
A|---------------------------------------------------------------------------|
E|---0-0-0---0---0-0-0---0---0-0-0---------0-0-0---0---0-0-0-----------------|
A|---0-0-0---0---0-0-0---0---0-0-0---------0-0-0---0---0-0-0-----------------|
     * * *   *   * * *   *   * * *         * * *   *   * * *

[Breakdown]
B|---------------------------------------------------------------------------|
G|---------------------------------------------------------------------------|
D|---------------------------------------------------------------------------|
A|---------------------------------------------------------------------------|
E|---0-0-0---0---0-0-0---0---0-0-0---------0-0-0---0---0-0-0-----------------|
A|---0-0-0---0---0-0-0---0---0-0-0---------0-0-0---0---0-0-0-----------------|
     * * *   *   * * *   *   * * *         * * *   *   * * *
B|---------------------------------------------------------------------------|
G|---------------------------------------------------------------------------|
D|---------------------------------------------------------------------------|
A|---------------------------------------------------------------------------|
E|---0-0-0---0---0-0-0---0---0-0-0---------0-0-0---0---0-0-0-----------------|
A|---0-0-0---0---0-0-0---0---0-0-0---------0-0-0---0---0-0-0-----------------|
     * * *   *   * * *   *   * * *         * * *   *   * * *
B|---------------------------------------------------------------------------|
G|---------------------------------------------------------------------------|
D|---------------------------------------------------------------------------|
A|---------------------------------------------------------------------------|
E|---0-0-0---0---0-0-0---0---0-0-0---------0-0-0---0---0-0-0-----------------|
A|---1-1-1---1---1-1-1---1---1-1-1---------1-1-1---1---1-1-1-----------------|
     * * *   *   * * *   *   * * *         * * *   *   * * *
B|---------------------------------------------------------------------------|
G|---------------------------------------------------------------------------|
D|---------------------------------------------------------------------------|
A|---------------------------------------------------------------------------|
E|---0-0-0---0---0-0-0---0---0-0-0---------0-0-0---0---0-0-0-----------------|
A|---1-1-1---1---1-1-1---1---1-1-1---------1-1-1---1---1-1-1-----------------|
     * * *   *   * * *   *   * * *         * * *   *   * * *
B|---------------------------------------------------------------------------|
G|---------------------------------------------------------------------------|
D|---------------------------------------------------------------------------|
A|---------------------------------------------------------------------------|
E|---0-0-0---0---0-0-0---0---0-0-0---------0-0-0---0---0-0-0-----------------|
A|---1-1-1---1---1-1-1---1---1-1-1---------1-1-1---1---1-1-1-----------------|
     * * *   *   * * *   *   * * *         * * *   *   * * *
B|---------------------------------------------------------------------------|
G|---------------------------------------------------------------------------|
D|---------------------------------------------------------------------------|
A|---------------------------------------------------------------------------|
E|---0-0-0---0---0-0-0---0---0-0-0---------0-0-0---0---0-0-0-----------------|
A|---1-1-1---1---1-1-1---1---1-1-1---------1-1-1---1---1-1-1-----------------|
     * * *   *   * * *   *   * * *         * * *   *   * * *
B|---------------------------------------------------------------------------|
G|---------------------------------------------------------------------------|
D|---------------------------------------------------------------------------|
A|---------------------------------------------------------------------------|
E|---0-0-0---0---0-0-0---0---0-0-0---------0-0-0---0---0-0-0-----------------|
A|---0-0-0---0---0-0-0---0---0-0-0---------0-0-0---0---0-0-0-----------------|
     * * *   *   * * *   *   * * *         * * *   *   * * *
B|---------------------------------------------------------------------------|
G|---------------------------------------------------------------------------|
D|---------------------------------------------------------------------------|
A|---------------------------------------------------------------------------|
E|---0-0-0---0---0-0-0---0---0-0-0---------0-0-0---0---0-0-0-----------------|
A|---0-0-0---0---0-0-0---0---0-0-0---------0-0-0---0---0-0-0-----------------|
     * * *   *   * * *   *   * * *         * * *   *   * * * 

            
            
Suggest correction
Creating personal tab
Creating personal tab
You can edit any tab online and save it as your Personal.

You can edit, replace or remove any tab part or add personal notes – all changes will be seen only by you.

Personal tabs can be accessed anytime from any device, even offline.
Learn more »
Give kudos to tab author, rate the tab!
1 2 3 4 5
comments
print report bad tab
guest
You may want to rate the tab now too:
select rating
Wanna post a correction for this tab? Suggest correction