Oops, an error
Loading. Please wait.

A Prophecy In Reverie tab

6,893 views 1 this week
1 commentread comment
1 2 3 4 5
x 3
add to favorites
×
Save as Personal and add changes to this tab that will be seen only by you. Learn more ›
×
You can save this tab as Personal to edit and correct it or add notes. All changes will be seen only by you. Learn more »
launch autoscroll
font size
0
reset
how to read this tab
guitar tuner
edit
Autoscroll
slow
fast
+/-
esc
set tempo
stop
Agraceful – A prophecy in Reverie

This tab is in Drop C, from the awesome band Agraceful.

Guitar 1
D||---------------------------------------------------------|
A||--10-10-10-10---10-10-10-10---10-10-10-10---10-10-10-10--|
F||--10-10-10-10---10-10-10-10---7--7--7--7----10-10-10-10--| x3
C||--0--0--0--0----0--0--0--0----0--0--0--0----0--0--0--0---|
G||--0--0--0--0----0--0--0--0----0--0--0--0----0--0--0--0---|
C||--0--0--0--0----0--0--0--0----0--0--0--0----0--0--0--0---|


Verse (repeat twice)
D||-------------------------------------|
A||--3/6h8------------------------------|
F||---------5h7—-0h3h5—-5\3--5/7\5------|
C||-------------------------------------|
G||-------------------------------------|
C||-------------------------------------|

D||-------------------------------------|
A||--3/6h8------------------------------|
F||---------5h7--0h3h5--5\3--3/5--------|
C||-------------------------------------|
G||-------------------------------------|
C||-------------------------------------|


Interlude
D||-------------|
A||-------------|
F||-2----2------|
C||-0----0------|
G||-0----0------|
C||-0----0------|


Chorus (repeat 4 times)
D||--------------------------------------|
A||--------------------------------------|
F||-14-14-14-14-14-14--12-12/17-17-17-17-|
C||--------------------------------------|
G||-12-12-12-12-12-12--10-10/15-15-15-15-|
C||--------------------------------------|

D||--------------------------------------|
A||--------------------------------------|
F||-14-14-14-14-14-14--12-12-12-12/10----|
C||--------------------------------------|
G||-12-12-12-12-12-12--10-10-10-10/8-----|
C||--------------------------------------|


Interlude after chorus - you don’t have to follow the hammers and pull-offs if you don’t 
too, its just the way I play it.

D||--------------------------------------------|
A||--------------------------------------------|
F||--------------------------------------------| x3
C||---0-7-8-0-5h7--0-5h3-0-3p0-2/3-------------|
G||--------------------------------------------|
C||--------------------------------------------|


Next bit
D||---------------------------------------------------|
A||-----6---------6----6------6--------6-------6---6--|
F||-----9---------9----9------9--------9-------9---9--|
C||-000----000--0----0----000----000------0-0-----0---|
G||-000----000--0----0----000----000------0-0-----0---|
C||-000----000--0----0----000----000------0-0-----0---|
    ...    ...  .    .    ...    ...      . .       .

D||--------------------------------------------|
A||-----6---------6----6------6----------------|
F||-----9---------9----9------9----------------|
C||-000-----000--0----0----000----000-0--------|
G||-000-----000--0----0----000----000-0--------|
C||-000-----000--0----0----000----000-0--------|
    ...     ...  .    .    ...    ...

D||------------------------|
A||------------------------|
F||-14/10--14/10-----------|
C||------------------0-----| x4  (fourth time, don’t play 0’s
G||-12/8---12/8------0-----|        straight into chorus after)
C||------------------0-----|


Chorus (repeat 4 times)
D||--------------------------------------|
A||--------------------------------------|
F||-14-14-14-14-14-14--12-12/17-17-17-17-|
C||--------------------------------------|
G||-12-12-12-12-12-12--10-10/15-15-15-15-|
C||--------------------------------------|

D||--------------------------------------|
A||--------------------------------------|
F||-14-14-14-14-14-14--12-12-12-12/10----|
C||--------------------------------------|
G||-12-12-12-12-12-12--10-10-10-10/8-----|
C||--------------------------------------|


Verse (repeat four times) – slightly different don’t slide back down to 5 in first part
D||-------------------------------------|
A||--3/6h8------------------------------|
F||---------5h7—-0h3h5—-5\3--5/7--------|
C||-------------------------------------|
G||-------------------------------------|
C||-------------------------------------|

D||-------------------------------------|
A||--3/6h8------------------------------|
F||---------5h7--0h3h5--5\3--3/5--------|
C||-------------------------------------|
G||-------------------------------------|
C||-------------------------------------|


Bit before the last chorus
D||----------------------------------------------|
A||----------------------------------------------|
F||-14-14-14-14-14-14-14\12-12-12-12/14-14-14-14-|
C||----------------------------------------------| x4
G||-12-12-12-12-12-12-12\10-10-10-10/12-12-12-12-|
C||----------------------------------------------|

Chorus (repeat 4 times)
D||--------------------------------------|
A||--------------------------------------|
F||-14-14-14-14-14-14--12-12/17-17-17-17-|
C||--------------------------------------|
G||-12-12-12-12-12-12--10-10/15-15-15-15-|
C||--------------------------------------|

D||--------------------------------------|
A||--------------------------------------|
F||-14-14-14-14-14-14--12-12-12-12/10----|
C||--------------------------------------|
G||-12-12-12-12-12-12--10-10-10-10/8-----|
C||--------------------------------------|


Outro
D||------------------------------------------|
A||------------------------------------------|
F||------------------------------------------|
C||-000-000--000-000----000-000--000-000-----|
G||-000-000--000-000----000-000--000-000-----|
C||-000-000--000-000----000-000--000-000-----|
    ... ...  ... ...    ... ...  ... ...

D||-------------------------------------------|
A||-------------------------------------------|
F||-------------------------------------------|
C||-000-000--000-000----000-000--000-000---0--|
G||-000-000--000-000----000-000--000-000---0--|
C||-000-000--000-000----000-000--000-000---0--|
    ..  ..   ..  ..     ..  ..   ..  ..    .

            
            
Suggest correction
Creating personal tab
Creating personal tab
You can edit any tab online and save it as your Personal.

You can edit, replace or remove any tab part or add personal notes – all changes will be seen only by you.

Personal tabs can be accessed anytime from any device, even offline.
Learn more »
Give kudos to tab author, rate the tab!
1 2 3 4 5
comments
print report bad tab
1 comment total.
+1 reply
Nateisonfire424 30 Aug 20, 2009 11:43 AM

good job. pretty decent tab. I play the intro like this though:
D||---------------------------------------------------------------|
A||-10--10--10-10----10--10--10-10--10--10--10-10---10--10--10-10-|
F||-10--10--10-10----10--10--10-10---7---7---7--7---10--10--10-10-| x3
C||--0---0---0--0-----0---0---0--0---0---0---0--0----0---0---0--0-|
G||--0---0---0--0-----0---0---0--0---0---0---0--0----0---0---0--0-|
C||---------------------------------------------------------------|
Then:
D||---------------------------------------------------------------|
A||---------------------------------------------------------------|
F||-10/12p0-------------------------------------------------------|
C||---------10/12p0----------------10h12p10-----------------------|
G||-----------------8/10p0-10h12p0----------10~-------------------|
C||---------------------------------------------------------------|

D||---------------------------------------------------------------|
A||---------------------------------------------------------------|
F||-10/12p0-------------------------------------------------------|
C||---------10/12p0-----------------------------------------------|
G||-----------------8/10p0-10h12p0------10h12---------------------|
C||--------------------------------8h10---------------------------|

guest
You may want to rate the tab now too:
select rating
Wanna post a correction for this tab? Suggest correction