Oops, an error
Loading. Please wait.

I Set My Friends On Fire tab

version 5
version 5

Whole song

Interactive

by Aiden
566 views 3 this week
2 commentsread comments
1 2 3 4 5
2 more votes to show rating
add to favorites
×
Save as Personal and add changes to this tab that will be seen only by you. Learn more ›
×
You can save this tab as Personal to edit and correct it or add notes. All changes will be seen only by you. Learn more »
launch autoscroll
font size
0
reset
how to read this tab
guitar tuner
edit
Autoscroll
slow
fast
+/-
esc
set tempo
stop
                            I Set My Friends on Fire-Aiden
-------------------------------------------------------------------------------
Tabbed by: Bboy FireDragon
Tuning: Drop C
  THIS WAS NOT INTENDED TO BE PLAYED THE WAY THE BAND PLAYS IT.


|----------------------------------------------------|--------------------------|
|----------------------------------------------------|--------------------------|
|-13--12-13--------13--12-13-6--6-6-13--12-13-8--8-8-|-13--12-13--15-13-12-13-8-|
|-----------3--3-3-----------6--6-6-----------8--8-8-|--------------------------|
|-11--10-11-3--3-3-11--10-11-4--4-4-11--10-11-6--6-6-|-11--10-11--13-11-10-11-6-|
|-----------3--3-3-----------------------------------|--------------------------|

|-------------------------------------------------------|
|-------------------------------------------------------|
|-------------------------------------------------------|
|-13--12-13--13--12-13--13--12-13-15--13-12-13-15--8-3--|
|-11--10-11--11--10-11--11--10-11-13--11-10-11-13--6-3--|
|----------------------------------------------------3--|
                Play these two riffs twice
|-------4-----------4---------|-------------------------------------|
|-------2-----------2---------|-------------------------------------|
|-----------------------------|-15-15-15-15-12-12-12-12-10-10-10-10-|
|-3-3-3---3--3-3-3----3-3-3-4-|-------------------------------------|
|-3-3-3---3--3-3-3----3-3-3-6-|-13-13-13-13-10-10-10-10-8--8--8--8--|
|-3-3-3---3--3-3-3----3-3-3---|-------------------------------------|

|-----------------------------------------------------------------------------|
|-----------------------------------------------------------------------------|
|-10-10-10-10-13-13-13-13-12-12-13-13-8-8-8-8-8-8-8-8-13-13-13-13-12-12-13-13-|
|-----------------------------------------------------------------------------|
|-8--8--8--8--11-11-11-11-10-10-11-11-6-6-6-6-6-6-6-6-11-11-11-11-10-10-11-11-|
|-----------------------------------------------------------------------------|
                            Play this 2x
|-----------------------------------------------------|
|-----------------------------------------------------|
|---------------------------6--6-6--6-6--8--8-8-15-13-|
|-3--3-3--3-3--3--3-3--3-3--6--6-6--6-6--8--8-8-------|
|-3--3-3--3-3--3--3-3--3-3--4--4-4--4-4--6--6-6-13-11-|
|-3--3-3--3-3--3--3-3--3-3----------------------------|
                                Play this 2x
|---------------------------------------------|
|---------------------------------------------|
|-----------------------6-6-6----8--8-8--8-8--|
|-3-3-3-4--3--3-3--3-3--6-6-6-4--8--8-8--8-8--|
|-3-3-3-6--3--3-3--3-3--4-4-4-6--6--6-6--6-6--|
|-3-3-3----3--3-3--3-3------------------------|
 Play this 11x
|----4-3--------|----4-3--|
|-6---------3-4-|-6-------|
|---------5-----|---------|
|---------------|---------|
|---------------|---------|
|---------------|---------|

|-----------------------------------------------------------------------------|----|
|-----------------------------------------------------------------------------|----|
|-10-10-10-10-13-13-13-13-12-12-13-13-8-8-8-8-8-8-8-8-13-13-13-13-12-12-13-13-|-10-|
|-----------------------------------------------------------------------------|----|
|-8--8--8--8--11-11-11-11-10-10-11-11-6-6-6-6-6-6-6-6-11-11-11-11-10-10-11-11-|-8--|
|-----------------------------------------------------------------------------|----|
         Play this 2x
|-----------------------------------------------------------------------------|
|------8------8------11------9------9-8------8------8------9------11------9-8-|
|----8------8------8-------8------8--------8------8------8------8-------8-----|
|-10-----10-----10------10-----10-------10-----10-----10-----10------10-------|
|-----------------------------------------------------------------------------|
|-----------------------------------------------------------------------------|
       Play this 2x
|-10-11------------13-11-10-11----------------13-11-10--8--6--4--3--4--6--8--|
|----------------------------------------------------------------------------|
|--------12-13-15---------------12-13-15--13---------------------------------|
|----------------------------------------------------------------------------|
|----------------------------------------------------------------------------|
|----------------------------------------------------------------------------|

|-----------------------------------------|
|-----------------------------------------|
|-----------------------------------------|
|-10-10-10-10--8-8-8-8--6-6-6-6--5-5-5-5--|
|-10-10-10-10--8-8-8-8--6-6-6-6--5-5-5-5--|
|-10-10-10-10--8-8-8-8--6-6-6-6--5-5-5-5--|

|------------------------------------------------------|----|
|------------------------------------------------------|----|
|------------------------------------------------------|----|
|-10--15--13-12-8--15--13-12-6--15--13-12-5--15--13-12-|-10-|
|-10--13--11-10-8--13--11-10-6--13--11-10-5--13--11-10-|-10-|
|-10------------8------------6------------5------------|-10-|

            
            
Suggest correction
Creating personal tab
Creating personal tab
You can edit any tab online and save it as your Personal.

You can edit, replace or remove any tab part or add personal notes – all changes will be seen only by you.

Personal tabs can be accessed anytime from any device, even offline.
Learn more »
Give kudos to tab author, rate the tab!
1 2 3 4 5
comments
print report bad tab
2 comments total.
0 reply
x6stringmayhem 10 Dec 22, 2008 05:06 PM

Dude... If you wanted... just transpose it up one whole step into drop d because the lowest power chord is open d (just a thought)

0 reply
ghostxbusted 10 Nov 26, 2014 11:55 AM

Lack of accuracy. Why would you bother to tab it if you're not gonna try to do it the way the band plays it?

guest
You may want to rate the tab now too:
select rating
Wanna post a correction for this tab? Suggest correction