Oops, an error
Loading. Please wait.

Last Sunrise tab

version 2
version 2

Whole song

Interactive

by Aiden
8,026 views 3 this week
16 commentsread comments
1 2 3 4 5
x 13
add to favorites
×
Save as Personal and add changes to this tab that will be seen only by you. Learn more ›
×
You can save this tab as Personal to edit and correct it or add notes. All changes will be seen only by you. Learn more »
launch autoscroll
font size
0
reset
how to read this tab
guitar tuner
edit
Autoscroll
slow
fast
+/-
esc
set tempo
stop
EDIT: Updated on 4/17/07
      - changed positions in intro and outro

#----------------------------------PLEASE NOTE---------------------------------#
#This file is the author's own work and represents their interpretation of the #
#song. You may only use this file for private study, scholarship, or research. #
#------------------------------------------------------------------------------##

                                THE LAST SUNRISE
                              As recorded by Aiden
                     (From the 2005 Album NIGHTMARE ANATOMY)

Words and Music by Aiden
Arranged by Aiden
Transcribed by Jonathan Rose

Gtr I (Db Ab Db Gb Bb Eb) - 'Dist. Left'
Gtr II (Db Ab Db Gb Bb Eb) - 'Dist. Right'
Gtr III (Db Ab Db Gb Bb Eb) - 'Dist. Left II'
Gtr IV (Db Ab Db Gb Bb Eb) - 'Clean Left'

   Intro
    Dancefight Q=256
    D5  N.C.          D5  N.C.          D5  N.C.
   4/4
    Gtr I
    PM|               PM|               PM|
    E E E E E E E E   E E E E E E E E   E E E E E E E E   E E E E E E E E   3x
||------------------|-----------------|-----------------|-------------------||
||o-----------------|-----------------|-----------------|------------------o||
||------------------|-----------------|-----------------|-------------------||
||------7p0-5p0-7p0-|-----7p0-5p0-7p0-|-----7p0-5p0-7p0-|-8p0-7p0-5p0-3h5---||
||o-0-0-------------|-0-0-------------|-0-0-------------|------------------o||
||--0-0-------------|-0-0-------------|-0-0-------------|-------------------||
|
|   Gtr II
|   PM|               PM|               PM|
|   E E E E E E E E   E E E E E E E E   E E E E E E E E   E E E E E E E E   3x
||------------------|-----------------|-----------------|-------------------||
||o-----------------|-----------------|-----------------|------------------o||
||------------------|-----------------|-----------------|-------------------||
||------3p0-2p0-3p0-|-----3p0-2p0-3p0-|-----3p0-2p0-3p0-|-5p0-3p0-2h3p2-0---||
||o-0-0-------------|-0-0-------------|-0-0-------------|------------------o||
||--0-0-------------|-0-0-------------|-0-0-------------|-------------------||


  D5  N.C.          D5  N.C.          D5  N.C.                        D5
  PM|               PM|               PM|
  E E E E E E E E   E E E E E E E E   E E E E E E E E   E E E E E E E  E
|-----------------|-----------------|-----------------|------------------||
|-----------------|-----------------|-----------------|------------------||
|-----------------|-----------------|-----------------|------------------||
|-----7p0-5p0-7p0-|-----7p0-5p0-7p0-|-----7p0-5p0-7p0-|-8p0-7p0-5p0-3--0-||
|-0-0-------------|-0-0-------------|-0-0-------------|----------------0-||
|-0-0-------------|-0-0-------------|-0-0-------------|----------------0-||
|
| PM|               PM|               PM|
| E E E E E E E E   E E E E E E E E   E E E E E E E E   E E E E E E E  E
|-----------------|-----------------|-----------------|------------------||
|-----------------|-----------------|-----------------|------------------||
|-----------------|-----------------|-----------------|---------------14-||
|-----3p0-2p0-3p0-|-----3p0-2p0-3p0-|-----3p0-2p0-3p0-|-5p0-3p0-2h3p2--x-||
|-0-0-------------|-0-0-------------|-0-0-------------|---------------12-||
|-0-0-------------|-0-0-------------|-0-0-------------|------------------||


 Verse
  D5
   +E   E  Q     H             Q     E  E  E  E  E  E
|---------------------------|-------------------------|
|---------------------------|-------------------------|
|---------------------------|-------------------------|
|--(0)--0--0----------------|--------0--0--0--0--0--0-|
|--(0)--0--0----------------|--------0--0--0--0--0--0-|
|--(0)--0--0----------------|--------0--0--0--0--0--0-|
|
|  +E   E  E  E  E  E  E  E    E  E  E  E  E  E  E  E
|---------------------------|-------------------------|
|---------------------------|-------------------------|
|-(14)-14-14-14-14-14-14-14-|-14-14-14-14-14-14-14-14-|
|--(x)--x--x--x--x--x--x--x-|--x--x--x--x--x--x--x--x-|
|-(12)-12-12-12-12-12-12-12-|-12-12-12-12-12-12-12-12-|
|---------------------------|-------------------------|


                                                  Bb5
  +E   E  Q     H             Q     E  E  E  E  E  E
|--------------------------|-------------------------|
|--------------------------|-------------------------|
|--------------------------|-------------------------|
|-(0)--0--0----------------|--------0--0--0--0--0--8-|
|-(0)--0--0----------------|--------0--0--0--0--0--8-|
|-(0)--0--0----------------|--------0--0--0--0--0--8-|
|
|  E   E  E  E  E  E  E  E    E  E  E  E  E  E  E  E
|--------------------------|-------------------------|
|--------------------------|-------------------------|
|-14--14-14-14-14-14-14-14-|-14-14-14-14-14-14-14-14-|
|--x---x--x--x--x--x--x--x-|--x--x--x--x--x--x--x--x-|
|-12--12-12-12-12-12-12-12-|-12-12-12-12-12-12-12-12-|
|--------------------------|-------------------------|


  Bb5                                             C5
  +E   E  Q     H             Q     E  E  E  E  E  E
|--------------------------|-------------------------|
|--------------------------|-------------------------|
|--------------------------|-------------------------|
|-(8)--8--8----------------|--------8--8--8--8--8-10-|
|-(8)--8--8----------------|--------8--8--8--8--8-10-|
|-(8)--8--8----------------|--------8--8--8--8--8-10-|
|
|  E   E  E  E  E  E  E  E    E  E  E  E  E  E  E  E
|--------------------------|-------------------------|
|--------------------------|-------------------------|
|-14--14-14-14-14-14-14-14-|-14-14-14-14-14-14-14-14-|
|--x---x--x--x--x--x--x--x-|--x--x--x--x--x--x--x--x-|
|-12--12-12-12-12-12-12-12-|-12-12-12-12-12-12-12-12-|
|--------------------------|-------------------------|


                                                   D5
   +E   E  Q     H             Q     E  E  E  E  E  E
|---------------------------|-------------------------|
|---------------------------|-------------------------|
|---------------------------|-------------------------|
|-(10)-10-10----------------|-------10-10-10-10-10--0-|
|-(10)-10-10----------------|-------10-10-10-10-10--0-|
|-(10)-10-10----------------|-------10-10-10-10-10--0-|
|
|   E   E  E  E  E  E  E  E    E  E  E  E  E  E  E  E
|---------------------------|-------------------------|
|---------------------------|-------------------------|
|--14--14-14-14-14-14-14-14-|-14-14-14-14-14-14-14-14-|
|---x---x--x--x--x--x--x--x-|--x--x--x--x--x--x--x--x-|
|--12--12-12-12-12-12-12-12-|-12-12-12-12-12-12-12-12-|
|---------------------------|-------------------------|


  D5
  +E   E  Q     H             Q     E  E  E  E  E  E
|--------------------------|-------------------------|
|--------------------------|-------------------------|
|--------------------------|-------------------------|
|-(0)--0--0----------------|--------0--0--0--0--0--0-|
|-(0)--0--0----------------|--------0--0--0--0--0--0-|
|-(0)--0--0----------------|--------0--0--0--0--0--0-|
|
|  E   E  E  E  E  E  E  E    E  E  E  E  E  E  E  E
|--------------------------|-------------------------|
|--------------------------|-------------------------|
|-14--14-14-14-14-14-14-14-|-14-14-14-14-14-14-14-14-|
|--x---x--x--x--x--x--x--x-|--x--x--x--x--x--x--x--x-|
|-12--12-12-12-12-12-12-12-|-12-12-12-12-12-12-12-12-|
|--------------------------|-------------------------|


                                                  Bb5
  +E   E  Q     H             Q     E  E  E  E  E  E
|--------------------------|-------------------------|
|--------------------------|-------------------------|
|--------------------------|-------------------------|
|-(0)--0--0----------------|--------0--0--0--0--0--8-|
|-(0)--0--0----------------|--------0--0--0--0--0--8-|
|-(0)--0--0----------------|--------0--0--0--0--0--8-|
|
|  E   E  E  E  E  E  E  E    E  E  E  E  E  E  E  E
|--------------------------|-------------------------|
|--------------------------|-------------------------|
|-14--14-14-14-14-14-14-14-|-14-14-14-14-14-14-14-14-|
|--x---x--x--x--x--x--x--x-|--x--x--x--x--x--x--x--x-|
|-12--12-12-12-12-12-12-12-|-12-12-12-12-12-12-12-12-|
|--------------------------|-------------------------|


  Bb5                                             C5
  +E   E  Q     H             Q     E  E  E  E  E  E
|--------------------------|-------------------------|
|--------------------------|-------------------------|
|--------------------------|-------------------------|
|-(8)--8--8----------------|--------8--8--8--8--8-10-|
|-(8)--8--8----------------|--------8--8--8--8--8-10-|
|-(8)--8--8----------------|--------8--8--8--8--8-10-|
|
|  E   E  E  E  E  E  E  E    E  E  E  E  E  E  E  E
|--------------------------|-------------------------|
|--------------------------|-------------------------|
|-14--14-14-14-14-14-14-14-|-14-14-14-14-14-14-14-14-|
|--x---x--x--x--x--x--x--x-|--x--x--x--x--x--x--x--x-|
|-12--12-12-12-12-12-12-12-|-12-12-12-12-12-12-12-12-|
|--------------------------|-------------------------|


                                                   N.C.
   +E   E  Q     H             Q     E  E  E  E  E  E
|---------------------------|-------------------------||
|---------------------------|-------------------------||
|---------------------------|----------------------14-||
|-(10)-10-10----------------|-------10-10-10-10-10--x-||
|-(10)-10-10----------------|-------10-10-10-10-10-12-||
|-(10)-10-10----------------|-------10-10-10-10-10----||
|
|   E   E  E  E  E  E  E  E    E  E  E  E  E  E  E  E
|---------------------------|-------------------------||
|---------------------------|-------------------------||
|--14--14-14-14-14-14-14-14-|-14-14-14-14-14-14-14-10-||
|---x---x--x--x--x--x--x--x-|--x--x--x--x--x--x--x--x-||
|--12--12-12-12-12-12-12-12-|-12-12-12-12-12-12-12--8-||
|---------------------------|-------------------------||


 Bridge
  N.C.
 2/4
   +H        +H        H       +H
|---------|---------|-------|---------||
|---------|---------|-------|---------||
|-(14)----|-(14)----|-12----|-(12)----||
|--(x)----|--(x)----|--x----|--(x)----||
|-(12)----|-(12)----|-10----|-(10)----||
|---------|---------|-------|---------||
|
|  +H        +H        H       +H
|---------|---------|-------|---------||
|---------|---------|-------|---------||
|-(10)----|-(10)----|-12----|-(12)----||
|--(x)----|--(x)----|--x----|--(x)----||
|--(8)----|--(8)----|-10----|-(10)----||
|---------|---------|-------|---------||


 Chorus
  F5
 4/4
   E  E  E  E  E  E  E  E    E  E  E  E  E  E  E  E
|-------------------------|-------------------------|
|-------------------------|-------------------------|
|-------------------------|-------------------------|
|--3--3--3--3--3--3--3--3-|--3--3--3--3--3--3--3--3-|
|--3--3--3--3--3--3--3--3-|--3--3--3--3--3--3--3--3-|
|--3--3--3--3--3--3--3--3-|--3--3--3--3--3--3--3--3-|
|
|  E  E  E  E  E  E  E  E    E  E  E  E  E  E  E  E
|-------------------------|-------------------------|
|-------------------------|-------------------------|
|-14-14-14-14-14-14-14-14-|-14-14-14-14-14-14-14-14-|
|--x--x--x--x--x--x--x--x-|--x--x--x--x--x--x--x--x-|
|-12-12-12-12-12-12-12-12-|-12-12-12-12-12-12-12-12-|
|-------------------------|-------------------------|


   E  E  E  E  E  E  E  E    E  E  E  E  E  E  E  E
|-------------------------|-------------------------|
|-------------------------|-------------------------|
|-------------------------|-------------------------|
|--3--3--3--3--3--3--3--3-|--3--3--3--3--3--3--3--3-|
|--3--3--3--3--3--3--3--3-|--3--3--3--3--3--3--3--3-|
|--3--3--3--3--3--3--3--3-|--3--3--3--3--3--3--3--3-|
|
|  E  E  E  E  E  E  E  E    E  E  E  E  E  E  E  E
|-------------------------|-------------------------|
|-------------------------|-------------------------|
|-12-12-12-12-12-12-12-12-|-10-10-10-10-10-10-10-10-|
|--x--x--x--x--x--x--x--x-|--x--x--x--x--x--x--x--x-|
|-10-10-10-10-10-10-10-10-|--8--8--8--8--8--8--8--8-|
|-------------------------|-------------------------|


  D5
   E  E  E  E  E  E  E  E    E  E  E  E  E  E  E  E
|-------------------------|-------------------------|
|-------------------------|-------------------------|
|-------------------------|-------------------------|
|--0--0--0--0--0--0--0--0-|--0--0--0--0--0--0--0--0-|
|--0--0--0--0--0--0--0--0-|--0--0--0--0--0--0--0--0-|
|--0--0--0--0--0--0--0--0-|--0--0--0--0--0--0--0--0-|
|
|  E  E  E  E  E  E  E  E    E  E  E  E  E  E  E  E
|-------------------------|-------------------------|
|-------------------------|-------------------------|
|-14-14-14-14-14-14-14-14-|-14-14-14-14-14-14-14-14-|
|--x--x--x--x--x--x--x--x-|--x--x--x--x--x--x--x--x-|
|-12-12-12-12-12-12-12-12-|-12-12-12-12-12-12-12-12-|
|-------------------------|-------------------------|


   E  E  E  E  E  E  E  E    E  E  E  E  E  E  E  E
|-------------------------|-------------------------|
|-------------------------|-------------------------|
|-------------------------|-------------------------|
|--0--0--0--0--0--0--0--0-|--0--0--0--0--0--0--0--0-|
|--0--0--0--0--0--0--0--0-|--0--0--0--0--0--0--0--0-|
|--0--0--0--0--0--0--0--0-|--0--0--0--0--0--0--0--0-|
|
|  E  E  E  E  E  E  E  E    E  E  E  E  E  E  E  E
|-------------------------|-------------------------|
|-------------------------|-------------------------|
|-12-12-12-12-12-12-12-12-|-10-10-10-10-10-10-10-10-|
|--x--x--x--x--x--x--x--x-|--x--x--x--x--x--x--x--x-|
|-10-10-10-10-10-10-10-10-|--8--8--8--8--8--8--8--8-|
|-------------------------|-------------------------|


  Bb5
   E  E  E  E  E  E  E  E    E  E  E  E  E  E  E  E
|-------------------------|-------------------------|
|-------------------------|-------------------------|
|--3--3--3--3--3--3--3--3-|--3--3--3--3--3--3--3--3-|
|--3--3--3--3--3--3--3--3-|--3--3--3--3--3--3--3--3-|
|--1--1--1--1--1--1--1--1-|--1--1--1--1--1--1--1--1-|
|-------------------------|-------------------------|
|
|  E  E  E  E  E  E  E  E    E  E  E  E  E  E  E  E
|-------------------------|-------------------------|
|-------------------------|-------------------------|
|-14-14-14-14-14-14-14-14-|-14-14-14-14-14-14-14-14-|
|--x--x--x--x--x--x--x--x-|--x--x--x--x--x--x--x--x-|
|-12-12-12-12-12-12-12-12-|-12-12-12-12-12-12-12-12-|
|-------------------------|-------------------------|


   E  E  E  E  E  E  E  E    E  E  E  E  E  E  E  E
|-------------------------|-------------------------|
|-------------------------|-------------------------|
|--3--3--3--3--3--3--3--3-|--3--3--3--3--3--3--3--3-|
|--3--3--3--3--3--3--3--3-|--3--3--3--3--3--3--3--3-|
|--1--1--1--1--1--1--1--1-|--1--1--1--1--1--1--1--1-|
|-------------------------|-------------------------|
|
|  E  E  E  E  E  E  E  E    E  E  E  E  E  E  E  E
|-------------------------|-------------------------|
|-------------------------|-------------------------|
|-12-12-12-12-12-12-12-12-|-10-10-10-10-10-10-10-10-|
|--x--x--x--x--x--x--x--x-|--x--x--x--x--x--x--x--x-|
|-10-10-10-10-10-10-10-10-|--8--8--8--8--8--8--8--8-|
|-------------------------|-------------------------|


  C5
  E E E E E E E E    E  E  E  E  E  E  E  E
|-----------------|-------------------------|
|-----------------|-------------------------|
|-5-5-5-5-5-5-5-5-|--5--5--5--5--5--5--5--5-|
|-5-5-5-5-5-5-5-5-|--5--5--5--5--5--5--5--5-|
|-3-3-3-3-3-3-3-3-|--3--3--3--3--3--3--3--3-|
|-----------------|-------------------------|
|
| E E E E E E E E    E  E  E  E  E  E  E  E
|-----------------|-------------------------|
|-----------------|-------------------------|
|-9-9-9-9-9-9-9-9-|-10-10-10-10-10-10-10-10-|
|-x-x-x-x-x-x-x-x-|--x--x--x--x--x--x--x--x-|
|-7-7-7-7-7-7-7-7-|--8--8--8--8--8--8--8--8-|
|-----------------|-------------------------|


                                                 D5
   E  E  E  E  E  E  E  E    E  E  E  E  E  E  E  E
|-------------------------|-------------------------||
|-------------------------|-------------------------||
|--5--5--5--5--5--5--5--5-|--5--5--5--5--5--5--5----||
|--5--5--5--5--5--5--5--5-|--5--5--5--5--5--5--5--0-||
|--3--3--3--3--3--3--3--3-|--3--3--3--3--3--3--3--0-||
|-------------------------|-----------------------0-||
|
|  E  E  E  E  E  E  E  E    E  E  E  E  E  E  E  E
|-------------------------|-------------------------||
|-------------------------|-------------------------||
|-12-12-12-12-12-12-12-12-|-12-12-12-12-12-12-12-14-||
|--x--x--x--x--x--x--x--x-|--x--x--x--x--x--x--x--x-||
|-10-10-10-10-10-10-10-10-|-10-10-10-10-10-10-10-12-||
|-------------------------|-------------------------||


 Verse
  D5
   +E   E  Q     H             Q     E  E  E  E  E  E
|---------------------------|-------------------------|
|---------------------------|-------------------------|
|---------------------------|-------------------------|
|--(0)--0--0----------------|--------0--0--0--0--0--0-|
|--(0)--0--0----------------|--------0--0--0--0--0--0-|
|--(0)--0--0----------------|--------0--0--0--0--0--0-|
|
|  +E   E  E  E  E  E  E  E    E  E  E  E  E  E  E  E
|---------------------------|-------------------------|
|---------------------------|-------------------------|
|-(14)-14-14-14-14-14-14-14-|-14-14-14-14-14-14-14-14-|
|--(x)--x--x--x--x--x--x--x-|--x--x--x--x--x--x--x--x-|
|-(12)-12-12-12-12-12-12-12-|-12-12-12-12-12-12-12-12-|
|---------------------------|-------------------------|


                                                  Bb5
  +E   E  Q     H             Q     E  E  E  E  E  E
|--------------------------|-------------------------|
|--------------------------|-------------------------|
|--------------------------|-------------------------|
|-(0)--0--0----------------|--------0--0--0--0--0--8-|
|-(0)--0--0----------------|--------0--0--0--0--0--8-|
|-(0)--0--0----------------|--------0--0--0--0--0--8-|
|
|  E   E  E  E  E  E  E  E    E  E  E  E  E  E  E  E
|--------------------------|-------------------------|
|--------------------------|-------------------------|
|-14--14-14-14-14-14-14-14-|-14-14-14-14-14-14-14-14-|
|--x---x--x--x--x--x--x--x-|--x--x--x--x--x--x--x--x-|
|-12--12-12-12-12-12-12-12-|-12-12-12-12-12-12-12-12-|
|--------------------------|-------------------------|


  Bb5                                             C5
  +E   E  Q     H             Q     E  E  E  E  E  E
|--------------------------|-------------------------|
|--------------------------|-------------------------|
|--------------------------|-------------------------|
|-(8)--8--8----------------|--------8--8--8--8--8-10-|
|-(8)--8--8----------------|--------8--8--8--8--8-10-|
|-(8)--8--8----------------|--------8--8--8--8--8-10-|
|
|  E   E  E  E  E  E  E  E    E  E  E  E  E  E  E  E
|--------------------------|-------------------------|
|--------------------------|-------------------------|
|-14--14-14-14-14-14-14-14-|-14-14-14-14-14-14-14-14-|
|--x---x--x--x--x--x--x--x-|--x--x--x--x--x--x--x--x-|
|-12--12-12-12-12-12-12-12-|-12-12-12-12-12-12-12-12-|
|--------------------------|-------------------------|


                                                   D5
   +E   E  Q     H             Q     E  E  E  E  E  E
|---------------------------|-------------------------|
|---------------------------|-------------------------|
|---------------------------|-------------------------|
|-(10)-10-10----------------|-------10-10-10-10-10--0-|
|-(10)-10-10----------------|-------10-10-10-10-10--0-|
|-(10)-10-10----------------|-------10-10-10-10-10--0-|
|
|   E   E  E  E  E  E  E  E    E  E  E  E  E  E  E  E
|---------------------------|-------------------------|
|---------------------------|-------------------------|
|--14--14-14-14-14-14-14-14-|-14-14-14-14-14-14-14-14-|
|---x---x--x--x--x--x--x--x-|--x--x--x--x--x--x--x--x-|
|--12--12-12-12-12-12-12-12-|-12-12-12-12-12-12-12-12-|
|---------------------------|-------------------------|


  D5
  +E   E  Q     H             Q     E  E  E  E  E  E
|--------------------------|-------------------------|
|--------------------------|-------------------------|
|--------------------------|-------------------------|
|-(0)--0--0----------------|--------0--0--0--0--0--0-|
|-(0)--0--0----------------|--------0--0--0--0--0--0-|
|-(0)--0--0----------------|--------0--0--0--0--0--0-|
|
|  E   E  E  E  E  E  E  E    E  E  E  E  E  E  E  E
|--------------------------|-------------------------|
|--------------------------|-------------------------|
|-14--14-14-14-14-14-14-14-|-14-14-14-14-14-14-14-14-|
|--x---x--x--x--x--x--x--x-|--x--x--x--x--x--x--x--x-|
|-12--12-12-12-12-12-12-12-|-12-12-12-12-12-12-12-12-|
|--------------------------|-------------------------|


                                                  Bb5
  +E   E  Q     H             Q     E  E  E  E  E  E
|--------------------------|-------------------------|
|--------------------------|-------------------------|
|--------------------------|-------------------------|
|-(0)--0--0----------------|--------0--0--0--0--0--8-|
|-(0)--0--0----------------|--------0--0--0--0--0--8-|
|-(0)--0--0----------------|--------0--0--0--0--0--8-|
|
|  E   E  E  E  E  E  E  E    E  E  E  E  E  E  E  E
|--------------------------|-------------------------|
|--------------------------|-------------------------|
|-14--14-14-14-14-14-14-14-|-14-14-14-14-14-14-14-14-|
|--x---x--x--x--x--x--x--x-|--x--x--x--x--x--x--x--x-|
|-12--12-12-12-12-12-12-12-|-12-12-12-12-12-12-12-12-|
|--------------------------|-------------------------|


  Bb5                                             C5
  +E   E  Q     H             Q     E  E  E  E  E  E
|--------------------------|-------------------------|
|--------------------------|-------------------------|
|--------------------------|-------------------------|
|-(8)--8--8----------------|--------8--8--8--8--8-10-|
|-(8)--8--8----------------|--------8--8--8--8--8-10-|
|-(8)--8--8----------------|--------8--8--8--8--8-10-|
|
|  E   E  E  E  E  E  E  E    E  E  E  E  E  E  E  E
|--------------------------|-------------------------|
|--------------------------|-------------------------|
|-14--14-14-14-14-14-14-14-|-14-14-14-14-14-14-14-14-|
|--x---x--x--x--x--x--x--x-|--x--x--x--x--x--x--x--x-|
|-12--12-12-12-12-12-12-12-|-12-12-12-12-12-12-12-12-|
|--------------------------|-------------------------|


                                                   D5
   +E   E  Q     H             Q     E  E  E  E  E  E
|---------------------------|-------------------------||
|---------------------------|-------------------------||
|---------------------------|----------------------10-||
|-(10)-10-10----------------|-------10-10-10-10-10--x-||
|-(10)-10-10----------------|-------10-10-10-10-10--8-||
|-(10)-10-10----------------|-------10-10-10-10-10----||
|
|   E   E  E  E  E  E  E  E    E  E  E  E  E  E  E  E
|---------------------------|-------------------------||
|---------------------------|-------------------------||
|--14--14-14-14-14-14-14-14-|-14-14-14-14-14-14-14----||
|---x---x--x--x--x--x--x--x-|--x--x--x--x--x--x--x--0-||
|--12--12-12-12-12-12-12-12-|-12-12-12-12-12-12-12--0-||
|---------------------------|-----------------------0-||


 Pre-Chorus
  Half-Time E=256
  D5                    C5
   +H      +E   Q   E    Q.     Q    E  Q
|---------------------|--------------------|
|---------------------|--------------------|
|-(10)----(10)-10--10-|-17-----17---15-14--|
|--(x)-----(x)--x---x-|--x------x----x--x--|
|--(8)-----(8)--8---8-|-15-----15---13-12--|
|---------------------|--------------------|
|
|               PM-|                 PM
|  +H      +E   Q   E    Q.    +Q    E  Q
|---------------------|--------------------|
|---------------------|--------------------|
|---------------------|--------------------|
|--(0)-----(0)--------|-10----(10)-----10--|
|--(0)-----(0)--0---0-|-10----(10)--10-10--|
|--(0)-----(0)--0---0-|-10----(10)--10-10--|


  Bb5                    C5           N.C.
   Q.    Q.        Q      +H      +E   E  E  E
|----------------------|-----------------------|
|----------------------|-----------------------|
|-12----14--------10---|-(10)----(10)-14-15-17-|
|--x-----x---------x---|--(x)-----(x)--x--x--x-|
|-10----12---------8---|--(8)-----(8)-12-13-15-|
|----------------------|-----------------------|
|
|               PM---|
|  H        +E  Q    E     H      +E   E  E  E
|----------------------|-----------------------|
|----------------------|-----------------------|
|----------------------|---------------9-10-12-|
|--8--------(8)--------|--10-----(10)--x--x--x-|
|--8--------(8)-8----8-|--10-----(10)--7--8-10-|
|--8--------(8)-8----8-|--10-----(10)----------|


  D5                  C5
   H     +E   Q   E    Q.     Q    E  Q
|-------------------|--------------------|
|-------------------|--------------------|
|-10----(10)-10--10-|-17-----17---15-14--|
|--x-----(x)--x---x-|--x------x----x--x--|
|--8-----(8)--8---8-|-15-----15---13-12--|
|-------------------|--------------------|
|
|             PM-|                 PM
|  H     +E   Q   E    Q.    +Q    E  Q
|-------------------|--------------------|
|-------------------|--------------------|
|-------------------|--------------------|
|--0-----(0)--------|-10----(10)-----10--|
|--0-----(0)--0---0-|-10----(10)--10-10--|
|--0-----(0)--0---0-|-10----(10)--10-10--|


  Bb5                    C5             N.C.
   Q.    Q.        Q      Q.    Q.         E  E    H     H
|----------------------|------------------------|-------------||
|----------------------|------------------------|-------------||
|-12----14--------10---|-12----14---------15-17-|-10-----9----||
|--x-----x---------x---|--x-----x----------x--x-|--x-----x----||
|-10----12---------8---|-10----12---------13-15-|--8-----7----||
|----------------------|------------------------|-------------||
|
|               PM---|
|  H        +E  Q    E    H         +E  E  E  E    H     H
|----------------------|------------------------|-------------||
|----------------------|------------------------|-------------||
|----------------------|----------------9-10-12-|-10----12----||
|--8--------(8)--------|-10--------(10)-x--x--x-|--x-----x----||
|--8--------(8)-8----8-|-10--------(10)-7--8-10-|--8----10----||
|--8--------(8)-8----8-|-10--------(10)---------|-------------||


   Chorus
    Original Tempo Q=256
    F5
     E  E  E  E  E  E  E  E    E  E  E  E  E  E  E  E
||--------------------------|-------------------------|
||o-------------------------|-------------------------|
||--------------------------|-------------------------|
||---3--3--3--3--3--3--3--3-|--3--3--3--3--3--3--3--3-|
||o--3--3--3--3--3--3--3--3-|--3--3--3--3--3--3--3--3-|
||---3--3--3--3--3--3--3--3-|--3--3--3--3--3--3--3--3-|
|
|    E  E  E  E  E  E  E  E    E  E  E  E  E  E  E  E
||--------------------------|-------------------------|
||o-------------------------|-------------------------|
||--14-14-14-14-14-14-14-14-|-14-14-14-14-14-14-14-14-|
||---x--x--x--x--x--x--x--x-|--x--x--x--x--x--x--x--x-|
||o-12-12-12-12-12-12-12-12-|-12-12-12-12-12-12-12-12-|
||--------------------------|-------------------------|


   E  E  E  E  E  E  E  E    E  E  E  E  E  E  E  E
|-------------------------|--------------------------|
|-------------------------|--------------------------|
|-------------------------|--------------------------|
|--3--3--3--3--3--3--3--3-|--3--3--3--3--3--3--3--3--|
|--3--3--3--3--3--3--3--3-|--3--3--3--3--3--3--3--3--|
|--3--3--3--3--3--3--3--3-|--3--3--3--3--3--3--3--3--|
|
|  E  E  E  E  E  E  E  E    E  E  E  E  E  E  E  E
|-------------------------|--------------------------|
|-------------------------|--------------------------|
|-12-12-12-12-12-12-12-12-|-10-10-10-10-10-10-10-10--|
|--x--x--x--x--x--x--x--x-|--x--x--x--x--x--x--x--x--|
|-10-10-10-10-10-10-10-10-|--8--8--8--8--8--8--8--8--|
|-------------------------|--------------------------|


  D5
   E  E  E  E  E  E  E  E    E  E  E  E  E  E  E  E
|-------------------------|-------------------------|
|-------------------------|-------------------------|
|-------------------------|-------------------------|
|--0--0--0--0--0--0--0--0-|--0--0--0--0--0--0--0--0-|
|--0--0--0--0--0--0--0--0-|--0--0--0--0--0--0--0--0-|
|--0--0--0--0--0--0--0--0-|--0--0--0--0--0--0--0--0-|
|
|  E  E  E  E  E  E  E  E    E  E  E  E  E  E  E  E
|-------------------------|-------------------------|
|-------------------------|-------------------------|
|-14-14-14-14-14-14-14-14-|-14-14-14-14-14-14-14-14-|
|--x--x--x--x--x--x--x--x-|--x--x--x--x--x--x--x--x-|
|-12-12-12-12-12-12-12-12-|-12-12-12-12-12-12-12-12-|
|-------------------------|-------------------------|


   E  E  E  E  E  E  E  E    E  E  E  E  E  E  E  E
|-------------------------|-------------------------|
|-------------------------|-------------------------|
|-------------------------|-------------------------|
|--0--0--0--0--0--0--0--0-|--0--0--0--0--0--0--0--0-|
|--0--0--0--0--0--0--0--0-|--0--0--0--0--0--0--0--0-|
|--0--0--0--0--0--0--0--0-|--0--0--0--0--0--0--0--0-|
|
|  E  E  E  E  E  E  E  E    E  E  E  E  E  E  E  E
|-------------------------|-------------------------|
|-------------------------|-------------------------|
|-12-12-12-12-12-12-12-12-|-10-10-10-10-10-10-10-10-|
|--x--x--x--x--x--x--x--x-|--x--x--x--x--x--x--x--x-|
|-10-10-10-10-10-10-10-10-|--8--8--8--8--8--8--8--8-|
|-------------------------|-------------------------|


  Bb5
   E  E  E  E  E  E  E  E    E  E  E  E  E  E  E  E
|-------------------------|-------------------------|
|-------------------------|-------------------------|
|--3--3--3--3--3--3--3--3-|--3--3--3--3--3--3--3--3-|
|--3--3--3--3--3--3--3--3-|--3--3--3--3--3--3--3--3-|
|--1--1--1--1--1--1--1--1-|--1--1--1--1--1--1--1--1-|
|-------------------------|-------------------------|
|
|  E  E  E  E  E  E  E  E    E  E  E  E  E  E  E  E
|-------------------------|-------------------------|
|-------------------------|-------------------------|
|-14-14-14-14-14-14-14-14-|-14-14-14-14-14-14-14-14-|
|--x--x--x--x--x--x--x--x-|--x--x--x--x--x--x--x--x-|
|-12-12-12-12-12-12-12-12-|-12-12-12-12-12-12-12-12-|
|-------------------------|-------------------------|


   E  E  E  E  E  E  E  E    E  E  E  E  E  E  E  E
|-------------------------|-------------------------|
|-------------------------|-------------------------|
|--3--3--3--3--3--3--3--3-|--3--3--3--3--3--3--3--3-|
|--3--3--3--3--3--3--3--3-|--3--3--3--3--3--3--3--3-|
|--1--1--1--1--1--1--1--1-|--1--1--1--1--1--1--1--1-|
|-------------------------|-------------------------|
|
|  E  E  E  E  E  E  E  E    E  E  E  E  E  E  E  E
|-------------------------|-------------------------|
|-------------------------|-------------------------|
|-12-12-12-12-12-12-12-12-|-10-10-10-10-10-10-10-10-|
|--x--x--x--x--x--x--x--x-|--x--x--x--x--x--x--x--x-|
|-10-10-10-10-10-10-10-10-|--8--8--8--8--8--8--8--8-|
|-------------------------|-------------------------|


  C5
  E E E E E E E E    E  E  E  E  E  E  E  E
|-----------------|-------------------------|
|-----------------|-------------------------|
|-5-5-5-5-5-5-5-5-|--5--5--5--5--5--5--5--5-|
|-5-5-5-5-5-5-5-5-|--5--5--5--5--5--5--5--5-|
|-3-3-3-3-3-3-3-3-|--3--3--3--3--3--3--3--3-|
|-----------------|-------------------------|
|
| E E E E E E E E    E  E  E  E  E  E  E  E
|-----------------|-------------------------|
|-----------------|-------------------------|
|-9-9-9-9-9-9-9-9-|-10-10-10-10-10-10-10-10-|
|-x-x-x-x-x-x-x-x-|--x--x--x--x--x--x--x--x-|
|-7-7-7-7-7-7-7-7-|--8--8--8--8--8--8--8--8-|
|-----------------|-------------------------|


   E  E  E  E  E  E  E  E    E  E  E  E  E  E  E  E
|-------------------------|--------------------------||
|-------------------------|-------------------------o||
|--5--5--5--5--5--5--5--5-|--5--5--5--5--5--5--5--5--||
|--5--5--5--5--5--5--5--5-|--5--5--5--5--5--5--5--5--||
|--3--3--3--3--3--3--3--3-|--3--3--3--3--3--3--3--3-o||
|-------------------------|--------------------------||
|
|  E  E  E  E  E  E  E  E    E  E  E  E  E  E  E  E
|-------------------------|--------------------------||
|-------------------------|-------------------------o||
|-12-12-12-12-12-12-12-12-|-12-12-12-12-12-12-12-12--||
|--x--x--x--x--x--x--x--x-|--x--x--x--x--x--x--x--x--||
|-10-10-10-10-10-10-10-10-|-10-10-10-10-10-10-10-10-o||
|-------------------------|--------------------------||


 Interlude
  Half-Time E=256
  D5         Bb5                    C5
             Gtr IV
  W          E   E E Q  Q.          E   E E Q  Q.
|----------|----------------------|----------------------|
|----------|----------------------|----------------------|
|----------|---------7------------|---------7------------|
|-0--------|-----7------7---------|-----7------7---------|
|-0--------|-5-----5--------------|-5-----5--------------|
|-0--------|----------------------|----------------------|
|
| W          H..            E  a    H..            E  a
|----------|----------------------|----------------------|
|----------|----------------------|----------------------|
|----------|-3--------------3-(3)s|=5--------------5-(5)s|
|-0--------|-3--------------3-(3)s|=5--------------5-(5)s|
|-0--------|-1--------------1-(1)s|=3--------------3-(3)s|
|-0--------|----------------------|----------------------|


  D5                     F5
  E   E E Q  Q.           E   E E Q  E Q
|----------------------|--------------------|
|----------------------|----------5---------|
|---------7------------|-------------7------|
|-----7------7---------|------7--------7----|
|-5-----5--------------|--5-----5-----------|
|----------------------|--------------------|
|
| H..            E  a     H..             E
|----------------------|--------------------|
|----------------------|--------------------|
|-7--------------7-(7)s|=10--------------10-|
|-7--------------7-(7)s|=10--------------10-|
|-5--------------5-(5)s|==8---------------8-|
|----------------------|--------------------|


  Bb5                    C5
  E   E E Q  Q.          E   E E Q  Q.
|----------------------|----------------------|
|----------------------|----------------------|
|---------7------------|---------7------------|
|-----7------7---------|-----7------7---------|
|-5-----5--------------|-5-----5--------------|
|----------------------|----------------------|
|
| H..            E  a    H..            E  a
|----------------------|----------------------|
|----------------------|----------------------|
|-3--------------3-(3)s|=5--------------5-(5)s|
|-3--------------3-(3)s|=5--------------5-(5)s|
|-1--------------1-(1)s|=3--------------3-(3)s|
|----------------------|----------------------|


  D5                     F5
  E   E E Q  Q.           E E E Q  E E E
|----------------------|------------------||
|----------------------|-----------5------||
|---------7------------|--------7----7----||
|-----7------7---------|----7----------7--||
|-5-----5--------------|--5---5-----------||
|----------------------|------------------||
|
| H..            E  a     W
|----------------------|------------------||
|----------------------|------------------||
|-7--------------7-(7)s|=10---------------||
|-7--------------7-(7)s|=10---------------||
|-5--------------5-(5)s|==8---------------||
|----------------------|------------------||


 Interlude Pt. II
  Original Tempo Q=256
  Bb5
  Gtr I
  Q   Q    Q   Q     +Q     H.
|------------------|---------------------|
|-----8------------|---------------------|
|---------10---9---|-(9)-----------------|
|-7----------------|-------10------------|
|------------------|---------------------|
|------------------|---------------------|
|
| Gtr II
| E E E E  E E E E    E  E  E  E E E E E
|------------------|---------------------|
|------------------|---------------------|
|-3-3-3-3--3-3-3-3-|--3--3--3--3-3-3-3-3-|
|-3-3-3-3--3-3-3-3-|--3--3--3--3-3-3-3-3-|
|-1-1-1-1--1-1-1-1-|--1--1--1--1-1-1-1-1-|
|------------------|---------------------|


  C5
  Q   Q    Q   Q     +Q     H.
|------------------|---------------------|
|-----8------------|---------------------|
|---------10---9---|-(9)-----------------|
|-7----------------|-------10------------|
|------------------|---------------------|
|------------------|---------------------|
|
| E E E E  E E E E    E  E  E  E E E E E
|------------------|---------------------|
|------------------|---------------------|
|-5-5-5-5--5-5-5-5-|--5--5--5--5-5-5-5-5-|
|-5-5-5-5--5-5-5-5-|--5--5--5--5-5-5-5-5-|
|-3-3-3-3--3-3-3-3-|--3--3--3--3-3-3-3-3-|
|------------------|---------------------|


  D5
  Q   Q    Q   Q     +Q     H.
|------------------|---------------------|
|-----8------------|---------------------|
|---------10---9---|-(9)-----------------|
|-7----------------|-------10------------|
|------------------|---------------------|
|------------------|---------------------|
|
| E E E E  E E E E    E  E  E  E E E E E
|------------------|---------------------|
|------------------|---------------------|
|-7-7-7-7--7-7-7-7-|--7--7--7--7-7-7-7-7-|
|-7-7-7-7--7-7-7-7-|--7--7--7--7-7-7-7-7-|
|-5-5-5-5--5-5-5-5-|--5--5--5--5-5-5-5-5-|
|------------------|---------------------|


  F5
   Q     Q     Q     Q      +Q      H.
|-------------------------|---------------------------|
|--------8----------------|---------------------------|
|-------------10-----9----|-(9)-----------------------|
|--7----------------------|--------10-----------------|
|-------------------------|---------------------------|
|-------------------------|---------------------------|
|
|  E  E  E  E  E  E  E  E    E   E  E   E  E  E  E  E
|-------------------------|---------------------------|
|-------------------------|---------------------------|
|-10-10-10-10-10-10-10-10-|-10--10-10--10-10-10-10-10-|
|-10-10-10-10-10-10-10-10-|-10--10-10--10-10-10-10-10-|
|--8--8--8--8--8--8--8--8-|--8---8--8---8--8--8--8--8-|
|-------------------------|---------------------------|


  Bb5
  Gtr I
  Q   Q    Q   Q     +Q     H.
|------------------|---------------------|
|-----8------------|---------------------|
|---------10---9---|-(9)-----------------|
|-7----------------|-------10------------|
|------------------|---------------------|
|------------------|---------------------|
|
| Gtr II
| E E E E  E E E E    E  E  E  E E E E E
|------------------|---------------------|
|------------------|---------------------|
|-3-3-3-3--3-3-3-3-|--3--3--3--3-3-3-3-3-|
|-3-3-3-3--3-3-3-3-|--3--3--3--3-3-3-3-3-|
|-1-1-1-1--1-1-1-1-|--1--1--1--1-1-1-1-1-|
|------------------|---------------------|
|
| Gtr III
| W                   W
|------------------|---------------------|
|------------------|---------------------|
|------------------|---------------------|
|------------------|---------------------|
|------------------|---------------------|
|------------------|---------------------|


  C5
  Q   Q    Q   Q     +Q      H        +E   E
|------------------|-------------------------||
|-----8------------|-------------------------||
|---------10---9---|-(9)---------------------||
|-7----------------|--------10-------(10)--0-||
|------------------|-----------------------0-||
|------------------|-----------------------0-||
|
|                     PM-------------|
| E E E E  E E E E    E   E  E E E E   E   E
|------------------|-------------------------||
|------------------|-------------------------||
|-5-5-5-5--5-5-5-5-|----------------------14-||
|-5-5-5-5--5-5-5-5-|--5---5--5-5-5-5---5---x-||
|-3-3-3-3--3-3-3-3-|--3---3--3-3-3-3---3--12-||
|------------------|-------------------------||
|
| W                   H..                  E
|------------------|-------------------------||
|------------------|-------------------------||
|------------------|----------------------10-||
|------------------|-----------------------x-||
|------------------|-----------------------8-||
|------------------|-------------------------||


 *Breakdown Verse*
  D5
   +E   E  Q     H              Q      E  E  E  E  E  E
|---------------------------|---------------------------|
|---------------------------|---------------------------|
|---------------------------|---------------------------|
|--(0)--0--0----------------|----------0--0--0--0--0--0-|
|--(0)--0--0----------------|----------0--0--0--0--0--0-|
|--(0)--0--0----------------|----------0--0--0--0--0--0-|
|
|  +E   E  E  E  E  E  E  E     E   E  E  E  E  E  E  E
|---------------------------|---------------------------|
|---------------------------|---------------------------|
|-(14)-14-14-14-14-14-14-14-|--14--14-14-14-14-14-14-14-|
|--(x)--x--x--x--x--x--x--x-|---x---x--x--x--x--x--x--x-|
|-(12)-12-12-12-12-12-12-12-|--12--12-12-12-12-12-12-12-|
|---------------------------|---------------------------|
|
|  +W                          +W
|---------------------------|---------------------------|
|---------------------------|---------------------------|
|-(10)----------------------|-(10)----------------------|
|--(x)----------------------|--(x)----------------------|
|--(8)----------------------|--(8)----------------------|
|---------------------------|---------------------------|


                                                    Bb5
  +E   E  Q     H              Q      E  E  E  E  E  E
|--------------------------|---------------------------|
|--------------------------|---------------------------|
|--------------------------|---------------------------|
|-(0)--0--0----------------|----------0--0--0--0--0--8-|
|-(0)--0--0----------------|----------0--0--0--0--0--8-|
|-(0)--0--0----------------|----------0--0--0--0--0--8-|
|
|  E   E  E  E  E  E  E  E     E   E  E  E  E  E  E  E
|--------------------------|---------------------------|
|--------------------------|---------------------------|
|-14--14-14-14-14-14-14-14-|--14--14-14-14-14-14-14-14-|
|--x---x--x--x--x--x--x--x-|---x---x--x--x--x--x--x--x-|
|-12--12-12-12-12-12-12-12-|--12--12-12-12-12-12-12-12-|
|--------------------------|---------------------------|
|
|  Q      H           Q       +Q      Q     H
|--------------------------|---------------------------|
|--------------------------|---------------------------|
|-10-----12----------10----|-(10)-----9-----5----------|
|--x------x-----------x----|--(x)-----x-----x----------|
|--8-----10-----------8----|--(8)-----7-----3----------|
|--------------------------|---------------------------|


  Bb5                                               C5
  +E   E  Q     H              Q      E  E  E  E  E  E
|--------------------------|---------------------------|
|--------------------------|---------------------------|
|--------------------------|---------------------------|
|-(8)--8--8----------------|----------8--8--8--8--8-10-|
|-(8)--8--8----------------|----------8--8--8--8--8-10-|
|-(8)--8--8----------------|----------8--8--8--8--8-10-|
|
|  E   E  E  E  E  E  E  E     E   E  E  E  E  E  E  E
|--------------------------|---------------------------|
|--------------------------|---------------------------|
|-14--14-14-14-14-14-14-14-|--14--14-14-14-14-14-14-14-|
|--x---x--x--x--x--x--x--x-|---x---x--x--x--x--x--x--x-|
|-12--12-12-12-12-12-12-12-|--12--12-12-12-12-12-12-12-|
|--------------------------|---------------------------|
|
|  W                          +W
|--------------------------|---------------------------|
|--------------------------|---------------------------|
|-10-----------------------|-(10)----------------------|
|--x-----------------------|--(x)----------------------|
|--8-----------------------|--(8)----------------------|
|--------------------------|---------------------------|


                                                     D5
   +E   E  Q     H              Q      E  E  E  E  E  E
|---------------------------|---------------------------||
|---------------------------|---------------------------||
|---------------------------|---------------------------||
|-(10)-10-10----------------|---------10-10-10-10-10--0-||
|-(10)-10-10----------------|---------10-10-10-10-10--0-||
|-(10)-10-10----------------|---------10-10-10-10-10--0-||
|
|   E   E  E  E  E  E  E  E     E   E  E  E  E  E  E  E
|---------------------------|---------------------------||
|---------------------------|---------------------------||
|--14--14-14-14-14-14-14-14-|--14--14-14-14-14-14-14-14-||
|---x---x--x--x--x--x--x--x-|---x---x--x--x--x--x--x--x-||
|--12--12-12-12-12-12-12-12-|--12--12-12-12-12-12-12-12-||
|---------------------------|---------------------------||
|
|   Q      H           Q       +Q      Q     H
|---------------------------|---------------------------||
|---------------------------|---------------------------||
|--10-----12----------10----|-(10)-----9-----5----------||
|---x------x-----------x----|--(x)-----x-----x----------||
|---8-----10-----------8----|--(8)-----7-----3----------||
|---------------------------|---------------------------||


 Verse
  D5
  Gtr I
  +E   E  Q     H             Q     E  E  E  E  E  E
|--------------------------|-------------------------|
|--------------------------|-------------------------|
|--------------------------|-------------------------|
|-(0)--0--0----------------|--------0--0--0--0--0--0-|
|-(0)--0--0----------------|--------0--0--0--0--0--0-|
|-(0)--0--0----------------|--------0--0--0--0--0--0-|
|
| Gtr II
|  E   E  E  E  E  E  E  E    E  E  E  E  E  E  E  E
|--------------------------|-------------------------|
|--------------------------|-------------------------|
|-14--14-14-14-14-14-14-14-|-14-14-14-14-14-14-14-14-|
|--x---x--x--x--x--x--x--x-|--x--x--x--x--x--x--x--x-|
|-12--12-12-12-12-12-12-12-|-12-12-12-12-12-12-12-12-|
|--------------------------|-------------------------|


                                                  Bb5
  +E   E  Q     H             Q     E  E  E  E  E  E
|--------------------------|-------------------------|
|--------------------------|-------------------------|
|--------------------------|-------------------------|
|-(0)--0--0----------------|--------0--0--0--0--0--8-|
|-(0)--0--0----------------|--------0--0--0--0--0--8-|
|-(0)--0--0----------------|--------0--0--0--0--0--8-|
|
|  E   E  E  E  E  E  E  E    E  E  E  E  E  E  E  E
|--------------------------|-------------------------|
|--------------------------|-------------------------|
|-14--14-14-14-14-14-14-14-|-14-14-14-14-14-14-14-14-|
|--x---x--x--x--x--x--x--x-|--x--x--x--x--x--x--x--x-|
|-12--12-12-12-12-12-12-12-|-12-12-12-12-12-12-12-12-|
|--------------------------|-------------------------|


  Bb5                                             C5
  +E   E  Q     H             Q     E  E  E  E  E  E
|--------------------------|-------------------------|
|--------------------------|-------------------------|
|--------------------------|-------------------------|
|-(8)--8--8----------------|--------8--8--8--8--8-10-|
|-(8)--8--8----------------|--------8--8--8--8--8-10-|
|-(8)--8--8----------------|--------8--8--8--8--8-10-|
|
|  E   E  E  E  E  E  E  E    E  E  E  E  E  E  E  E
|--------------------------|-------------------------|
|--------------------------|-------------------------|
|-14--14-14-14-14-14-14-14-|-14-14-14-14-14-14-14-14-|
|--x---x--x--x--x--x--x--x-|--x--x--x--x--x--x--x--x-|
|-12--12-12-12-12-12-12-12-|-12-12-12-12-12-12-12-12-|
|--------------------------|-------------------------|


                                                   D5
   +E   E  Q     H             Q     E  E  E  E  E  E
|---------------------------|-------------------------||
|---------------------------|-------------------------||
|---------------------------|----------------------10-||
|-(10)-10-10----------------|-------10-10-10-10-10--x-||
|-(10)-10-10----------------|-------10-10-10-10-10--8-||
|-(10)-10-10----------------|-------10-10-10-10-10----||
|
|   E   E  E  E  E  E  E  E    E  E  E  E  E  E  E  E
|---------------------------|-------------------------||
|---------------------------|-------------------------||
|--14--14-14-14-14-14-14-14-|-14-14-14-14-14-14-14----||
|---x---x--x--x--x--x--x--x-|--x--x--x--x--x--x--x--0-||
|--12--12-12-12-12-12-12-12-|-12-12-12-12-12-12-12--0-||
|---------------------------|-----------------------0-||


 Pre-Chorus
  Half-Time E=256
  D5                    C5
   +H      +E   Q   E    Q.     Q    E  Q
|---------------------|--------------------|
|---------------------|--------------------|
|-(10)----(10)-10--10-|-17-----17---15-14--|
|--(x)-----(x)--x---x-|--x------x----x--x--|
|--(8)-----(8)--8---8-|-15-----15---13-12--|
|---------------------|--------------------|
|
|               PM-|                 PM
|  +H      +E   Q   E    Q.    +Q    E  Q
|---------------------|--------------------|
|---------------------|--------------------|
|---------------------|--------------------|
|--(0)-----(0)--------|-10----(10)-----10--|
|--(0)-----(0)--0---0-|-10----(10)--10-10--|
|--(0)-----(0)--0---0-|-10----(10)--10-10--|


  Bb5                    C5           N.C.
   Q.    Q.        Q      +H      +E   E  E  E
|----------------------|-----------------------|
|----------------------|-----------------------|
|-12----14--------10---|-(10)----(10)-14-15-17-|
|--x-----x---------x---|--(x)-----(x)--x--x--x-|
|-10----12---------8---|--(8)-----(8)-12-13-15-|
|----------------------|-----------------------|
|
|               PM---|
|  H        +E  Q    E     H      +E   E  E  E
|----------------------|-----------------------|
|----------------------|-----------------------|
|----------------------|---------------9-10-12-|
|--8--------(8)--------|--10-----(10)--x--x--x-|
|--8--------(8)-8----8-|--10-----(10)--7--8-10-|
|--8--------(8)-8----8-|--10-----(10)----------|


  D5                  C5
   H     +E   Q   E    Q.     Q    E  Q
|-------------------|--------------------|
|-------------------|--------------------|
|-10----(10)-10--10-|-17-----17---15-14--|
|--x-----(x)--x---x-|--x------x----x--x--|
|--8-----(8)--8---8-|-15-----15---13-12--|
|-------------------|--------------------|
|
|             PM-|                 PM
|  H     +E   Q   E    Q.    +Q    E  Q
|-------------------|--------------------|
|-------------------|--------------------|
|-------------------|--------------------|
|--0-----(0)--------|-10----(10)-----10--|
|--0-----(0)--0---0-|-10----(10)--10-10--|
|--0-----(0)--0---0-|-10----(10)--10-10--|


  Bb5                    C5             N.C.
   Q.    Q.        Q      Q.    Q.         E  E    H     H
|----------------------|------------------------|-------------||
|----------------------|------------------------|-------------||
|-12----14--------10---|-12----14---------15-17-|-10-----9----||
|--x-----x---------x---|--x-----x----------x--x-|--x-----x----||
|-10----12---------8---|-10----12---------13-15-|--8-----7----||
|----------------------|------------------------|-------------||
|
|               PM---|
|  H        +E  Q    E    H         +E  E  E  E    H     H
|----------------------|------------------------|-------------||
|----------------------|------------------------|-------------||
|----------------------|----------------9-10-12-|-10----12----||
|--8--------(8)--------|-10--------(10)-x--x--x-|--x-----x----||
|--8--------(8)-8----8-|-10--------(10)-7--8-10-|--8----10----||
|--8--------(8)-8----8-|-10--------(10)---------|-------------||


   Chorus
    Original Tempo Q=256
    F5
     E  E  E  E  E  E  E  E    E  E  E  E  E  E  E  E
||--------------------------|-------------------------|
||o-------------------------|-------------------------|
||--------------------------|-------------------------|
||---3--3--3--3--3--3--3--3-|--3--3--3--3--3--3--3--3-|
||o--3--3--3--3--3--3--3--3-|--3--3--3--3--3--3--3--3-|
||---3--3--3--3--3--3--3--3-|--3--3--3--3--3--3--3--3-|
|
|    E  E  E  E  E  E  E  E    E  E  E  E  E  E  E  E
||--------------------------|-------------------------|
||o-------------------------|-------------------------|
||--14-14-14-14-14-14-14-14-|-14-14-14-14-14-14-14-14-|
||---x--x--x--x--x--x--x--x-|--x--x--x--x--x--x--x--x-|
||o-12-12-12-12-12-12-12-12-|-12-12-12-12-12-12-12-12-|
||--------------------------|-------------------------|


   E  E  E  E  E  E  E  E    E  E  E  E  E  E  E  E
|-------------------------|--------------------------|
|-------------------------|--------------------------|
|-------------------------|--------------------------|
|--3--3--3--3--3--3--3--3-|--3--3--3--3--3--3--3--3--|
|--3--3--3--3--3--3--3--3-|--3--3--3--3--3--3--3--3--|
|--3--3--3--3--3--3--3--3-|--3--3--3--3--3--3--3--3--|
|
|  E  E  E  E  E  E  E  E    E  E  E  E  E  E  E  E
|-------------------------|--------------------------|
|-------------------------|--------------------------|
|-12-12-12-12-12-12-12-12-|-10-10-10-10-10-10-10-10--|
|--x--x--x--x--x--x--x--x-|--x--x--x--x--x--x--x--x--|
|-10-10-10-10-10-10-10-10-|--8--8--8--8--8--8--8--8--|
|-------------------------|--------------------------|


  D5
   E  E  E  E  E  E  E  E    E  E  E  E  E  E  E  E
|-------------------------|-------------------------|
|-------------------------|-------------------------|
|-------------------------|-------------------------|
|--0--0--0--0--0--0--0--0-|--0--0--0--0--0--0--0--0-|
|--0--0--0--0--0--0--0--0-|--0--0--0--0--0--0--0--0-|
|--0--0--0--0--0--0--0--0-|--0--0--0--0--0--0--0--0-|
|
|  E  E  E  E  E  E  E  E    E  E  E  E  E  E  E  E
|-------------------------|-------------------------|
|-------------------------|-------------------------|
|-14-14-14-14-14-14-14-14-|-14-14-14-14-14-14-14-14-|
|--x--x--x--x--x--x--x--x-|--x--x--x--x--x--x--x--x-|
|-12-12-12-12-12-12-12-12-|-12-12-12-12-12-12-12-12-|
|-------------------------|-------------------------|


   E  E  E  E  E  E  E  E    E  E  E  E  E  E  E  E
|-------------------------|-------------------------|
|-------------------------|-------------------------|
|-------------------------|-------------------------|
|--0--0--0--0--0--0--0--0-|--0--0--0--0--0--0--0--0-|
|--0--0--0--0--0--0--0--0-|--0--0--0--0--0--0--0--0-|
|--0--0--0--0--0--0--0--0-|--0--0--0--0--0--0--0--0-|
|
|  E  E  E  E  E  E  E  E    E  E  E  E  E  E  E  E
|-------------------------|-------------------------|
|-------------------------|-------------------------|
|-12-12-12-12-12-12-12-12-|-10-10-10-10-10-10-10-10-|
|--x--x--x--x--x--x--x--x-|--x--x--x--x--x--x--x--x-|
|-10-10-10-10-10-10-10-10-|--8--8--8--8--8--8--8--8-|
|-------------------------|-------------------------|


  Bb5
   E  E  E  E  E  E  E  E    E  E  E  E  E  E  E  E
|-------------------------|-------------------------|
|-------------------------|-------------------------|
|--3--3--3--3--3--3--3--3-|--3--3--3--3--3--3--3--3-|
|--3--3--3--3--3--3--3--3-|--3--3--3--3--3--3--3--3-|
|--1--1--1--1--1--1--1--1-|--1--1--1--1--1--1--1--1-|
|-------------------------|-------------------------|
|
|  E  E  E  E  E  E  E  E    E  E  E  E  E  E  E  E
|-------------------------|-------------------------|
|-------------------------|-------------------------|
|-14-14-14-14-14-14-14-14-|-14-14-14-14-14-14-14-14-|
|--x--x--x--x--x--x--x--x-|--x--x--x--x--x--x--x--x-|
|-12-12-12-12-12-12-12-12-|-12-12-12-12-12-12-12-12-|
|-------------------------|-------------------------|


   E  E  E  E  E  E  E  E    E  E  E  E  E  E  E  E
|-------------------------|-------------------------|
|-------------------------|-------------------------|
|--3--3--3--3--3--3--3--3-|--3--3--3--3--3--3--3--3-|
|--3--3--3--3--3--3--3--3-|--3--3--3--3--3--3--3--3-|
|--1--1--1--1--1--1--1--1-|--1--1--1--1--1--1--1--1-|
|-------------------------|-------------------------|
|
|  E  E  E  E  E  E  E  E    E  E  E  E  E  E  E  E
|-------------------------|-------------------------|
|-------------------------|-------------------------|
|-12-12-12-12-12-12-12-12-|-10-10-10-10-10-10-10-10-|
|--x--x--x--x--x--x--x--x-|--x--x--x--x--x--x--x--x-|
|-10-10-10-10-10-10-10-10-|--8--8--8--8--8--8--8--8-|
|-------------------------|-------------------------|


  C5
  E E E E E E E E    E  E  E  E  E  E  E  E
|-----------------|-------------------------|
|-----------------|-------------------------|
|-5-5-5-5-5-5-5-5-|--5--5--5--5--5--5--5--5-|
|-5-5-5-5-5-5-5-5-|--5--5--5--5--5--5--5--5-|
|-3-3-3-3-3-3-3-3-|--3--3--3--3--3--3--3--3-|
|-----------------|-------------------------|
|
| E E E E E E E E    E  E  E  E  E  E  E  E
|-----------------|-------------------------|
|-----------------|-------------------------|
|-9-9-9-9-9-9-9-9-|-10-10-10-10-10-10-10-10-|
|-x-x-x-x-x-x-x-x-|--x--x--x--x--x--x--x--x-|
|-7-7-7-7-7-7-7-7-|--8--8--8--8--8--8--8--8-|
|-----------------|-------------------------|


   E  E  E  E  E  E  E  E    E  E  E  E  E  E  E  E
|-------------------------|--------------------------||
|-------------------------|-------------------------o||
|--5--5--5--5--5--5--5--5-|--5--5--5--5--5--5--5--5--||
|--5--5--5--5--5--5--5--5-|--5--5--5--5--5--5--5--5--||
|--3--3--3--3--3--3--3--3-|--3--3--3--3--3--3--3--3-o||
|-------------------------|--------------------------||
|
|  E  E  E  E  E  E  E  E    E  E  E  E  E  E  E  E
|-------------------------|--------------------------||
|-------------------------|-------------------------o||
|-12-12-12-12-12-12-12-12-|-12-12-12-12-12-12-12-12--||
|--x--x--x--x--x--x--x--x-|--x--x--x--x--x--x--x--x--||
|-10-10-10-10-10-10-10-10-|-10-10-10-10-10-10-10-10-o||
|-------------------------|--------------------------||


   Outro
    D5  N.C.          D5  N.C.          D5  N.C.
    PM|               PM|               PM|
    E E E E E E E E   E E E E E E E E   E E E E E E E E   E E E E E E E E   4x
||------------------|-----------------|-----------------|-------------------||
||o-----------------|-----------------|-----------------|------------------o||
||------------------|-----------------|-----------------|-------------------||
||------7p0-5p0-7p0-|-----7p0-5p0-7p0-|-----7p0-5p0-7p0-|-8p0-7p0-5p0-3h5---||
||o-0-0-------------|-0-0-------------|-0-0-------------|------------------o||
||--0-0-------------|-0-0-------------|-0-0-------------|-------------------||
|
|   PM|               PM|               PM|
|   E E E E E E E E   E E E E E E E E   E E E E E E E E   E E E E E E E E   4x
||------------------|-----------------|-----------------|-------------------||
||o-----------------|-----------------|-----------------|------------------o||
||------------------|-----------------|-----------------|-------------------||
||------3p0-2p0-3p0-|-----3p0-2p0-3p0-|-----3p0-2p0-3p0-|-5p0-3p0-2h3p2-0---||
||o-0-0-------------|-0-0-------------|-0-0-------------|------------------o||
||--0-0-------------|-0-0-------------|-0-0-------------|-------------------||


  D5                                                   N.C.
  Gtrs I, II
                              >
  PM--------------------------------------|
  E H..         +W           +W           +W           Wx8
|-------------|------------|------------|------------|--------*|
|-------------|------------|------------|------------|--------*|
|-------------|------------|------------|------------|--------*|
|-------------|------------|------------|------------|--------*|
|-0-0---------|-(0)--------|-(0)--------|-(0)--------|--------*|
|-0-0---------|-(0)--------|-(0)--------|-(0)--------|--------*|


Duration Legend
---------------
W - whole; H - half; Q - quarter; E - 8th; S - 16th; T - 32nd; X - 64th; a - acciaccatura
+ - note tied to previous; . - note dotted; .. - note double dotted
Uncapitalized letters represent notes that are staccato (1/2 duration)
Irregular groupings are notated above the duration line
Duration letters will always appear directly above the note/fret number it represents the
duration for.  Duration letters with no fret number below them represent rests.  Multi-
bar rests are notated in the form Wxn, where n is the number of bars to rest for.  Low
melody durations appear below the staff

Tablature Legend
----------------
 h   - hammer-on
 p   - pull-off
 b   - bend
 pb  - pre-bend
 r   - bend release (if no number after the r, then release immediately)
 /\  - slide into or out of (from/to "nowhere")
 s   - legato slide
 S   - shift slide
  - natural harmonic
[n]  - artificial harmonic
n(n) - tapped harmonic
 ~   - vibrato
 tr  - trill
 T   - tap
 TP  - trem. picking
 PM  - palm muting
\n/  - tremolo bar dip; n = amount to dip
 \n  - tremolo bar down
 n/  - tremolo bar up
/n\  - tremolo bar inverted dip
 =   - hold bend; also acts as connecting device for hammers/pulls
 <>  - volume swell (louder/softer)
 x   - on rhythm slash represents muted slash
 o   - on rhythm slash represents single note slash

Misc Legend
-----------
 |  - bar
||  - double bar
||o - repeat start
o|| - repeat end
*|  - double bar (ending)
 :  - bar (freetime)
 $  - Segno
 &  - Coda
Tempo markers -  = BPM(8/16=s8/s16), where s8 = swing 8ths, s16 = swing 16ths


***************************************************************************************
* Generated using Power Tab Editor by Brad Larsen - http://powertab.guitarnetwork.org *
***************************************************************************************

            
            
Suggest correction
Creating personal tab
Creating personal tab
You can edit any tab online and save it as your Personal.

You can edit, replace or remove any tab part or add personal notes – all changes will be seen only by you.

Personal tabs can be accessed anytime from any device, even offline.
Learn more »
comments
print report bad tab
16 comments total. Showing first comments.
0 reply
will_soad_mcr 10 Feb 18, 2006 06:31 AM

awesome tab,but a few problems.its so god damn complicating!not sure about the intro but i havent tried it with both guitars at the same time yet,and im not sure about the interlude either.other than that,awesome tab!keep tabbing aiden,we need tabs for more of their songs!keep itup!

0 reply
will_soad_mcr 10 Feb 18, 2006 06:41 AM

another problem:i just tried it out with the song,and you need to tune the guitar down one note on every string-downtune the whole guitar one note,so its drop C.then play the tab as shown

0 reply
jonathanonfire 4,750 Feb 27, 2006 04:01 PM

im positive its in drop d-flat. this was supposed to be a powertab. im not sure why it wasnt added that way. if you want this in powertab email me @ jonathanroseboom@hotmail.com

guest
You may want to rate the tab now too:
select rating
Wanna post a correction for this tab? Suggest correction