Oops, an error
Loading. Please wait.

Let The Right One In Acoustic bass

version 1
version 1

Whole song

Interactive

by Aiden
91 views 1 this week
no commentswrite comment
1 2 3 4 5
3 more votes to show rating
add to favorites
×
Save as Personal and add changes to this tab that will be seen only by you. Learn more ›
×
You can save this tab as Personal to edit and correct it or add notes. All changes will be seen only by you. Learn more »
launch autoscroll
font size
0
reset
guitar tuner
edit
Autoscroll
slow
fast
+/-
esc
set tempo
stop
Author
Difficulty
This is the bass tab for the acoustic version I put on here
it goes well with it and I thought it'd be great for an acoustic
set.

Intro
 Part 1 (3x)                 Part 2
G|---------------------------|--------------------------|
D|-5--5--5-5-5---------------|--------------------------|
A|-------------5--5-5-3--3-3-|--------------------------|
E|---------------------------|-1--1--1-1-3--3-3-3-3-3-3-|

Verse
 Part 1  (3x)       Part 2
G|------------------|------------|
D|----4~---4-0------|------------|
A|-2-----2-----4-0~-|------------|
E|------------------|-1--1--3--3-|

Pre-Chorus
G|-------------|
D|-------------|
A|-------------|
E|-1~----3~----|


Chorus
G|--------------------------|
D|--------------------------|
A|--------------------------|
E|-1-1--1-3--3-3--5-5--5--5-|

Intro
Verse
Pre-Chorus
Chorus

Bridge
(The notes in parentheses are   
optional. Depending on what chord the
guitarist decides to play. If guiarist
plays Am play the open A. If guitarist
plays F play the high F octave note. If
guitarist plays G play the open A. You
will just play that one note again and
again until bridge is done.)
G|(0~)--------------------------------|
D|(3~)--------------------------------|
A|-0~---------------------------------|
E|------------------------------------|

Pre-Chorus
Chorus

That's it guys! Hope you enjoy both of my tabs for this tab!
Please do remember that the work of both these tabs is completely
original. Aiden never came out with an acoustic version
so I made one and it works for the song!! Please if there are any
questions about the song contact me at julianlluviagutierrez on Skype
I will gladly demonstrate how both the guitar and bass parts go for
my version. Comment and rate!!

            
            
Suggest correction
Creating personal tab
Creating personal tab
You can edit any tab online and save it as your Personal.

You can edit, replace or remove any tab part or add personal notes – all changes will be seen only by you.

Personal tabs can be accessed anytime from any device, even offline.
Learn more »
Give kudos to tab author, rate the tab!
1 2 3 4 5
comments
print report bad tab
guest
You may want to rate the tab now too:
select rating
Wanna post a correction for this tab? Suggest correction