Oops, an error
Loading. Please wait.

Moment tab

version 3
version 3

Whole song

Interactive

by Aiden
4,020 views 6 this week
2 commentsread comments
1 2 3 4 5
1 last vote to show rating
add to favorites
×
Save as Personal and add changes to this tab that will be seen only by you. Learn more ›
×
You can save this tab as Personal to edit and correct it or add notes. All changes will be seen only by you. Learn more »
launch autoscroll
font size
0
reset
how to read this tab
guitar tuner
edit
Autoscroll
slow
fast
+/-
esc
set tempo
stop
Author
here this is how the verse,chorus,and bridge is played
                   
****this is how you'd play it in drop D****


i think this is how the verse goes
guitar 1
e|-------------------------------------------------------------|
G|-------------------------------------------------------------|
B|-------------------------------------------------------------|
D|-------------------------------------------------------------|
A|-------------------------------------------------------------|
D|---6~----8~----10~----8~----6~----10~----8~------------ <----| 2x
guitar 2
e|-------------------------------------------------------------|
G|-------------------------------------------------------------|
B|-------------------------------------------------------------|
D|-11111-33333-55555-33333-111111111-55555-33333---------------|
A|-------------------------------------------------------------|
D|------------------------------------------------------- <----| 2x


chorus

e|-----------------------------------------------|
G|-----------------------------------------------|
B|-----------------------------------------------|
D|--1010101010101010-55555555-66666666-11111111--|
A|--1010101010101010-55555555-66666666-11111111--|
D|--1010101010101010-55555555-66666666-11111111--|
"i will wait...      lips collide      ...almost stop the earth"

e|-----------------------------------------------|
G|-----------------------------------------------|
B|-----------------------------------------------|
D|--1010101010101010-88888888-66666666-88888888--|
A|--1010101010101010-88888888-66666666-88888888--|
D|--1010101010101010-88888888-66666666-88888888--|
        "...you're in my arms tonight"

bridge after 2nd chorus

e|-------------------------------------------------------------------------|
G|-------------------------------------------------------------------------|
B|-------------------------------------------------------------------------|
D|--66666666-88888888-66666666-1010101010101010-88888888-------------------|
A|--66666666-88888888-66666666-1010101010101010-88888888-------------------|
D|--66666666-88888888-66666666-1010101010101010-88888888- <-- repeat this--| 2x
   "i feel so alive,i feel so alive tonight..."

then

e|-------------------------------------------------------|
G|-------------------------------------------------------|
B|-------------------------------------------------------|
D|--66666666-888~-999~-----------------------------------|
A|--66666666-888~-999~-----------------------------------|
D|--66666666-888~-999~-----------------------------------|
 "if love exists,i will fall..."

its really messy,but it's pretty accurate. if you have any corrections,please correct! and rate!

            
            
Suggest correction
Creating personal tab
Creating personal tab
You can edit any tab online and save it as your Personal.

You can edit, replace or remove any tab part or add personal notes – all changes will be seen only by you.

Personal tabs can be accessed anytime from any device, even offline.
Learn more »
Give kudos to tab author, rate the tab!
1 2 3 4 5
comments
print report bad tab
2 comments total.
+1 reply
coldfry1 2,158 Feb 27, 2008 12:33 PM

awesome tab. tho u left out two parts. part 1--played second verse
e---------3----3-
b----3--4---4---4
g-5-------------

this is when he says "so i laugh at love" or somethin like that
e---3--6--3
b-3--------

+1 reply
shadowthorn777 10 Jun 21, 2008 02:24 PM

thnx coldfry that completes da tab! cept intro
and he says "so im alive in love" lol

guest
You may want to rate the tab now too:
select rating
Wanna post a correction for this tab? Suggest correction