Oops, an error
Loading. Please wait.

Moment tab

version 4
version 4

Whole song

Interactive

by Aiden
7,283 views 9 this week
5 commentsread comments
1 2 3 4 5
x 6
add to favorites
×
Save as Personal and add changes to this tab that will be seen only by you. Learn more ›
×
You can save this tab as Personal to edit and correct it or add notes. All changes will be seen only by you. Learn more »
launch autoscroll
font size
0
reset
how to read this tab
guitar tuner
edit
Autoscroll
slow
fast
+/-
esc
set tempo
stop
Author
okay here is the song,both guitars,in this tuning DGCFAD!
!!!!!updated 4/29/09!!!!!

------------
Jake W
------------
Intro (Clean)
d|-----------------------------------------------|
A|-----------------------------------------------|
F|-----------------------------------------------|
C|-----------------------------------------------|
G|---5/12~---1/7~----------5~---3~---1~----------|
D|-----------------------------------------------|

Verse 2x
d|-----------------------------------------------------------------|
A|-----------------------------------------------------------------|
F|-----------------------------------------------------------------|
C|-----------------------------------------------------------------|
G|--11111110-33333330-55555550-33333330---111111110-555550-333330--|
D|-----------------------------------------------------------------|
PM  ........ ........ ........ ........   ......... ...... ...... 

1st Chorus (Distortion)
d|----------------------------------------------------------|
A|----------------------------------------------------------|
D|----777777777-----------333333333-------------------------|
C|----777777777-777777777-333333333-333333333---------------|
G|----555555555-777777777-111111111-333333333---------------|
D|--------------555555555-----------111111111---------------|
1st Chorus (Continued)                           
d|---------------------------------------------|------------|
A|---------------------------------------------|------------|
D|----777777777-555555555-333333333-555555555--|--5~--------|
C|----777777777-555555555-333333333-555555555--|--5~--------|
G|----555555555-333333333-111111111-333333333--|--3~--------|
D|---------------------------------------------|------------|
                                             ending chorus ^
2nd Verse     2nd Verse continued 2x
d|-----------|--------------------------------------------------------|
A|-----------|--5--6-6-6-6-5-5-5-5-6-6-6-6-5-5-5-5-6--6-6-6-6-5-5-5-5-|
D|-----------|--4--5-5-5-5-4-4-4-4-5-5-5-5-4-4-4-4-5--5-5-5-5-4-4-4-4-|
C|-pick slide|--------------------------------------------------------|
G|-pick slide|--------------------------------------------------------|
D|-pick slide|--------------------------------------------------------|
2nd Verse Ending 
d|---------------|
A|---------------|
D|---------------|
C|-pick slide----|
G|-pick slide----|
D|-pick slide----|

Chorus 2x

Then

Bridge 2x
d|----------------------------------------------------------|
A|----------------------------------------------------------|
D|-333333333-555555555-333333333-777777777-555555555--------|
C|-333333333-555555555-333333333-777777777-555555555--------|
G|-111111111-333333333-111111111-555555555-333333333--------|
D|----------------------------------------------------------|
(After 2nd Time)
d|--------------------------------|
A|--------------------------------|
D|--333333333-555555--6~----------|
C|--333333333-555555--6~----------|
G|--111111111-333333--4~----------|
D|--------------------------------|

Chorus 2x

Done

-----------
ANGEL
-----------
Intro (Clean)
d|------------------------------------------------------------|
A|----------------13--10--11----------------13--11--10--------|
F|----------10----------------------10------------------------|
C|---10/12-----10------------10/12------10--------------------|
G|------------------------------------------------------------|
D|------------------------------------------------------------|
Intro (Continued)
d|------------------------------|
A|----------------13--10--11----|
F|----------10------------------|
C|---10/12-----10---------------|
G|------------------------------|
D|------------------------------|

Pre-Chorus (Clean)
d|---------------------------------------------|
A|---------------------------------------------|
F|---------------------------------------------|
C|-----3----3------2-----2---------------------|
G|--1-1-1-1--1--3-3-3--3---3-------------------|
D|---------------------------------------------|

1st Chorus                     
d|-------------------------------------------------------------|
A|----------------13--11--10----------------11-10--10----------|
F|----------10----------------------10----------------10-------|
C|---10/12-----10------------10/12------10---------------------|
G|-------------------------------------------------------------|
D|-------------------------------------------------------------|
Chorus Continued
d|-----------------------------------------------------------------|
A|----------------13--11--10----------------11-10--11--10----------|
F|----------10----------------------10--------------------10-------|
C|---10/12-----10------------10/12------10-------------------------|
G|-----------------------------------------------------------------|
D|-----------------------------------------------------------------|

2nd Verse about 6x
d|-------------------------------------------------------|
A|----------10-------------------10------10--------------|
F|--7--9-7-----10~------7--9-7------10~-----10~----------|
C|-------------------------------------------------------| 
G|-------------------------------------------------------|
D|-------------------------------------------------------|

Chorus 4x

then

Bridge 4x
d|-------------------------|
A|-----10~-13-10~----------|
F|---9~--------------------|
C|-------------------------|
G|-------------------------|
D|-------------------------|

He does something after that but its really hard to figure out

Chorus 4x

then

Outro (Clean)
d|------------------------------------------------------------|
A|----------------13--10--11----------------13--11--10--------|
F|----------10----------------------10------------------------|
C|---10/12-----10------------10/12------10--------------------|
G|------------------------------------------------------------|
D|------------------------------------------------------------|
Intro (Continued)
d|------------------------------|
A|----------------13--10--11----|
F|----------10------------------|
C|---10/12-----10---------------|
G|------------------------------|
D|------------------------------|


Done.
BIG THANX to all who helped me with the tuning figuration!
****PLEASE RATE****

            
            
Suggest correction
Creating personal tab
Creating personal tab
You can edit any tab online and save it as your Personal.

You can edit, replace or remove any tab part or add personal notes – all changes will be seen only by you.

Personal tabs can be accessed anytime from any device, even offline.
Learn more »
comments
print report bad tab
5 comments total. Showing first comments.
0 reply
andrewjf 829 Apr 10, 2008 03:08 PM

yo i have a correction on Angel's part!

2nd Verse about 6x
d|----------------------------------|
A|-------10---------10----10--------|
F|---9-10--10~--9-10--10~---10~-----|
C|-12---------12--------------------|
G|----------------------------------|
D|----------------------------------|

and Jake W's 1st verse

Verse 2x
d|-----------------------------------------------------------------|
A|-----------------------------------------------------------------|
F|-----------------------------------------------------------------|
C|-----------------------------------------------------------------|
G|--111111110-33333330-55555550-33333330--111111110-555550-333330--|
D|-----------------------------------------------------------------|
PM ........ ........ ........ ........ ........ ..... ......

+1 reply
andrewjf 829 Apr 10, 2008 03:09 PM

lol whoops
the Palm mute is off,well u can get the picture lol

+1 reply
shadowthorn777 10 Jun 21, 2008 02:25 PM

looks good!

guest
You may want to rate the tab now too:
select rating
Wanna post a correction for this tab? Suggest correction