Oops, an error
Loading. Please wait.

We Sleep Forever bass

version 1
version 1

Whole song

Interactive

by Aiden
4,481 views 3 this week
3 commentsread comments
1 2 3 4 5
x 4
add to favorites
×
Save as Personal and add changes to this tab that will be seen only by you. Learn more ›
×
You can save this tab as Personal to edit and correct it or add notes. All changes will be seen only by you. Learn more »
launch autoscroll
font size
0
reset
guitar tuner
edit
Autoscroll
slow
fast
+/-
esc
set tempo
stop
-------------------------------------------------------------------------------
			     We Sleep Forever - Aiden
-------------------------------------------------------------------------------

Tuning:DADG

00:03
intro/chorus
G|-----------------------------------------------------------------------------------------|
D|-----------------------------------------------------------------------------------------|
A|-----------------------------------------------------------------------------------------|
D|-9999-7777-5555-7777-9999-7777-5555-7777---9999-7777-5555-7777-9999-7777-55555555-77777--|

00:20
verse
G|-------------------------------------------|
D|-------------------------------------------|2x
A|-------------------------------------------|
D|-55555555-77777777-99999999-12121212-7777--|

00:36
then
G|--------------------------------------------------|
D|--------------------------------------------------|
A|--------------------------------------------------|
D|-55555555-77777777-99999999-77777777-55555555--7--|

chorus

01:04
verse
G|-------------------------------------------------------------------------------------------------|
D|-------------------------------------------------------------------------------------------------|
A|-------------------------------------------------------------------------------------------------|
D|-55555555-77777777-99999999-12121212-77777--55555555-77777777-99999999-12121212-7777-55555555--7-|

chorus

1:39
G|------------------------------|
D|------------------------------|
A|------------------------------|
D|-9~---------------9~----------|

1:51
bridge
G|------------------------------|
D|------------------------------|2x
A|-------------77---1010--1212--|
D|-99---1212--------------------|

2:06
G|-------------------------------|
D|-------------------------------|
A|-------------------------------|
D|-9--------7--------5--------5--|

2:13
G|-------------------------------------------------------|
D|-------------------------------------------------------|2x
A|---------------------------77777777-10101010-12121212--|
D|-99999999-1212121212121212-----------------------------|

then
G|----------------------------------------------|
D|----------------------------------------------|
A|---------------------------77777777-----------|
D|-99999999-1212121212121212----------44444444--|

chorus 2x

G|---------------|
D|---------------|
A|---------------|
D|-4~------------|


| /  slide up
| \  slide down
| h  hammer-on
| p  pull-off
| ~  vibrato
| +  harmonic
| x  Mute note
===============================================================================

            
            
Suggest correction
Creating personal tab
Creating personal tab
You can edit any tab online and save it as your Personal.

You can edit, replace or remove any tab part or add personal notes – all changes will be seen only by you.

Personal tabs can be accessed anytime from any device, even offline.
Learn more »
comments
print report bad tab
3 comments total.
+1 reply
frostguitarist 10 Mar 31, 2007 01:31 PM

the last hit.. the 4... i thinks its 3 because it sounds lower.. i may not be right.. but just saying in case i am ;D

+1 reply
HiMyNameIsMatt 190 Jul 09, 2007 03:49 AM

im guessin its tuned down to Db not just D...
???

+1 reply
tom0466 15 Feb 14, 2008 04:15 PM

Yeah, I think you're a half step too high if you're saying it's standard D. Other than that, it's a pretty good tab.

guest
You may want to rate the tab now too:
select rating
Wanna post a correction for this tab? Suggest correction