Oops, an error
Loading. Please wait.
We have an official Afternoon Sister tab made by UG professional guitarists. Check out the tab »
×
by Air
22 views 1 this week
no commentswrite comment
1 2 3 4 5
3 more votes to show rating
add to favorites
×
Save as Personal and add changes to this tab that will be seen only by you. Learn more ›
×
You can save this tab as Personal to edit and correct it or add notes. All changes will be seen only by you. Learn more »
launch autoscroll
font size
0
reset
how to read this tab
guitar tuner
edit
Autoscroll
slow
fast
+/-
esc
set tempo
stop
e|----------------------------------------------------|
B|----------------------------------------------------|
G|--4-----------4-----------4-----------4-------------|
D|--5-----------5-----------5-----------5-------------|
A|--5-----------5-----------5-----------5-----5g-5g---|
E|--3-----3g----3-----3g----3-----3g----3-----3g-3g---|

e|----------------------------------------------------|
B|--6-----------6-----------6-----------6-------------|
G|--6-----------6-----------6-----------6-------------|
D|--6-----6g----6-----6g----6-----6g----6-----6g-6g---|
A|--4-----4g----4-----4g----4-----4g----4-----4g-4g---|
E|----------------------------------------------------|

e|----------------------------------------------------|
B|--3-----------3-----------3-----------3-------------|
G|--3-----------3-----------3-----------3-------------|
D|--3-----3g----3-----3g----3-----3g----3-----3g-3g---|
A|--1-----1g----1-----1g----1-----1g----1-----1g-1g---|
E|----------------------------------------------------|

e|--0-----0-----0-----0-------|--0-----0-----0-----0-------|
B|--0-----0-----0-----0-------|--1-----1-----1-----1-------|
G|--1-----1-----1-----1-------|--0-----0-----0-----0-------|
D|--2-----2-----2-----2-------|--2--2g-2--2g-2--2g-2--2g---|
A|--2--2g-2--2g-2--2g-2--2g---|--3--3g-3--3g-3--3g-3--3g---|
E|--0--0g-0--0g-0--0g-0--0g---|----------------------------|

e|----------------------------|
B|--3-----3-----3-----3-------|
G|--3-----3-----3-----3-------|
D|--5-----5-----5-----5-------|
A|--5--5g-5--5g-5--5g-5--5g---|
E|--3--3g-3--3g-3--3g-3--3g---|

e|----------------------------------------------------|
B|--8-----------8-----------8-----------8-------------|
G|--8-----------8-----------8-----------8-------------|
D|--8-----8g----8-----8g----8-----8g----8-----8g-8g---|
A|--6-----6g----6-----6g----6-----6g----6-----6g-6g---|
E|----------------------------------------------------|

e|--3-----3-----3-------------|----|
B|--3-----3-----3-------------|----|
G|--3-----3-----3-------------|----|
D|--5-----5-----5-------------|----|
A|--5-----5--5g-5-------------|----|
E|--3-----3--3g-3-------------|----|

e|----------------------------------------------------|
B|--8-----------8-----------8-----------8-------------|
G|--8-----------8-----------8-----------8-------------|
D|--8-----------8-----8g-8g-8-----8g----8-----8g-8g---|
A|--6-----------6-----6g-6g-6-----6g----6-----6g-6g---|
E|----------------------------------------------------|

e|--3-----------3-----------3-----------3-------------|-------|
B|--4-----------4-----------4-----------4-------------|-------|
G|--5-----------5-----------5-----------5-------------|--7----|
D|--5-----5g----5-----5g----5-----5g----5-----5g-5g---|--7----|
A|--3-----3g----3-----3g----3-----3g----3-----3g-3g---|--5----|
E|----------------------------------------------------|-------|

e|----------------------------------------------------|
B|----------------------------------------------------|
G|--4-----------4-----------4-----------4-------------|
D|--5-----------5-----------5-----------5-------------|
A|--5-----------5-----5g-5g-5-----5g----5-----5g-5g---|
E|--3-----------3-----3g-3g-3-----3g----3-----3g-3g---|

e|----------------------------------------------------|
B|--6-----------6-----------------------6-------------|
G|--6-----------6-----------------------6-------------|
D|--6-----------6--------6g-6-----6-----6-----6g-6g---|
A|--4-----------4--------4g-4-----4-----4-----4g-4g---|
E|----------------------------------------------------|

e|----------------------------------------------------|
B|--3-----------3-----------3-----------3-------------|
G|--3-----------3-----------3-----------3-------------|
D|--3-----3g----3-----3g-3g-3-----3g----3-----3g-3g---|
A|--1-----1g----1-----1g-1g-1-----1g----1-----1g-1g---|
E|----------------------------------------------------|

e|--0-----------0-----------0-----------0-------------|
B|--0-----------0-----------0-----------0-------------|
G|--1-----------1-----------1-----------1-------------|
D|--2-----------2-----------2-----------2-------------|
A|--2-----2g----2-----2g-2g-2-----2g----2-----2g------|
E|--0-----0g----0-----0g-0g-0-----0g----0-----0g------|

e|--0-----------0-----------------------0-------------|
B|--1-----------1-----------------------1-------------|
G|--0-----------0-----------------------0-------------|
D|--2-----------2-----2g-2g-2-----2-----2-----2g------|
A|--3-----------3-----3g-3g-3-----3-----3-----3g------|
E|----------------------------------------------------|

e|----------------------------------------------------|
B|--3-----------3-----------3-----------3-------------|
G|--3-----------3-----------3-----------3-------------|
D|--5-----------5-----------5-----------5-------------|
A|--5-----------5-----5g----5-----5g----5-----5g-5g---|
E|--3-----------3-----3g----3-----3g----3-----3g-3g---|

e|----------------------------------------------------|
B|--8-----------8-----------8-----------8-------------|
G|--8-----------8-----------8-----------8-------------|
D|--8-----8g----8-----8g----8-----8g----8-----8g-8g---|
A|--6-----6g----6-----6g----6-----6g----6-----6g-6g---|
E|----------------------------------------------------|

e|--3-----------3-----------3-----------3-------------|----|
B|--3-----------3-----------3-----------3-------------|----|
G|--3-----------3-----------3-----------3-------------|----|
D|--5-----------5-----------5-----------5-------------|----|
A|--5-----5g----5-----5g-5g-5-----5g----5-------------|----|
E|--3-----3g----3-----3g-3g-3-----3g----3-------------|----|

e|----------------------------------------------------|
B|--8-----------8-----------8-----------8-------------|
G|--8-----------8-----------8-----------8-------------|
D|--8-----------8-----8g-8g-8-----8g----8-----8g-8g---|
A|--6-----------6-----6g-6g-6-----6g----6-----6g-6g---|
E|----------------------------------------------------|

e|--3-----------3-----------3-----------3-------------|
B|--4-----------4-----------4-----------4-------------|
G|--5-----------5-----------5-----------5-------------|
D|--5-----------5-----5g-5g-5-----5g----5-----5g-5g---|
A|--3-----------3-----3g-3g-3-----3g----3-----3g-3g---|
E|----------------------------------------------------|

e|----------------------------------------------------|
B|--7-----------7-----------7-----------7-------------|
G|--7-----------7-----------7-----------7-------------|
D|--7-----7g----7-----7g----7-----7g----7-----7g-7g---|
A|--5-----5g----5-----5g----5-----5g----5-----5g-5g---|
E|----------------------------------------------------|

e|----------------------------------------------------|
B|----------------------------------------------------|
G|--4-----------4-----------4-----------4-------------|
D|--5-----------5-----------5-----------5-------------|
A|--5-----------5-----5g-5g-5-----5g----5-----5g-5g---|
E|--3-----------3-----3g-3g-3-----3g----3-----3g-3g---|

e|----------------------------------------------------|
B|--6-----------6-----------------------6-------------|
G|--6-----------6-----------------------6-------------|
D|--6-----------6--------6g-6-----6-----6-----6g-6g---|
A|--4-----------4--------4g-4-----4-----4-----4g-4g---|
E|----------------------------------------------------|

e|----------------------------------------------------|
B|--3-----------3-----------3-----------3-------------|
G|--3-----------3-----------3-----------3-------------|
D|--3-----3g----3-----3g-3g-3-----3g----3-----3g-3g---|
A|--1-----1g----1-----1g-1g-1-----1g----1-----1g-1g---|
E|----------------------------------------------------|

e|--0-----------0-----------0-----------0-------------|
B|--0-----------0-----------0-----------0-------------|
G|--1-----------1-----------1-----------1-------------|
D|--2-----------2-----------2-----------2-------------|
A|--2-----2g----2-----2g-2g-2-----2g----2-----2g-2g---|
E|--0-----0g----0-----0g-0g-0-----0g----0-----0g-0g---|

e|--0-----------0-----------------------0-------------|
B|--1-----------1-----------------------1-------------|
G|--0-----------0-----------------------0-------------|
D|--2-----------2-----2g-2g-2-----2-----2-----2g-2g---|
A|--3-----------3-----3g-3g-3-----3-----3-----3g-3g---|
E|----------------------------------------------------|

e|----------------------------------------------------|
B|--3-----------3-----------3-----------3-------------|
G|--3-----------3-----------3-----------3-------------|
D|--5-----------5-----------5-----------5-------------|
A|--5-----------5-----5g----5-----5g----5-----5g-5g---|
E|--3-----------3-----3g----3-----3g----3-----3g-3g---|

e|----------------------------------------------------|
B|--8-----------8-----------8-----------8-------------|
G|--8-----------8-----------8-----------8-------------|
D|--8-----8g----8-----8g----8-----8g----8-----8g-8g---|
A|--6-----6g----6-----6g----6-----6g----6-----6g-6g---|
E|----------------------------------------------------|

e|--3-----------3-----------3-----------3-------------|----|
B|--3-----------3-----------3-----------3-------------|----|
G|--3-----------3-----------3-----------3-------------|----|
D|--5-----------5-----------5-----------5-------------|----|
A|--5-----5g----5-----5g-5g-5-----5g----5-------------|----|
E|--3-----3g----3-----3g-3g-3-----3g----3-------------|----|

e|----------------------------------------------------|
B|--8-----------8-----------8-----------8-------------|
G|--8-----------8-----------8-----------8-------------|
D|--8-----8g----8-----8g-8g-8-----8g----8-----8g-8g---|
A|--6-----6g----6-----6g-6g-6-----6g----6-----6g-6g---|
E|----------------------------------------------------|

e|--3-----------3-----------3-----------3-------------|
B|--4-----------4-----------4-----------4-------------|
G|--5-----------5-----------5-----------5-------------|
D|--5-----------5-----5g-5g-5-----5g----5-----5g-5g---|
A|--3-----------3-----3g-3g-3-----3g----3-----3g-3g---|
E|----------------------------------------------------|

e|----------------------------|--3----|
B|--7-----7-----7-----7-------|--3----|
G|--7-----7-----7-----7-------|--4----|
D|--7--7g-7--7g-7--7g-7--7g---|--5----|
A|--5--5g-5--5g-5--5g-5--5g---|--5----|
E|----------------------------|--3----|


*****************************

| g - ghost note

*****************************

            
            
Suggest correction
Creating personal tab
Creating personal tab
You can edit any tab online and save it as your Personal.

You can edit, replace or remove any tab part or add personal notes – all changes will be seen only by you.

Personal tabs can be accessed anytime from any device, even offline.
Learn more »
Give kudos to tab author, rate the tab!
1 2 3 4 5
comments
print report bad tab
guest
You may want to rate the tab now too:
select rating
Wanna post a correction for this tab? Suggest correction