Oops, an error
Loading. Please wait.
We have an official Alone In Kyoto tab made by UG professional guitarists. Check out the tab »
×
by Air
23,594 views 66 this week
4 commentsread comments
1 2 3 4 5
x 26
add to favorites
×
Save as Personal and add changes to this tab that will be seen only by you. Learn more ›
×
You can save this tab as Personal to edit and correct it or add notes. All changes will be seen only by you. Learn more »
launch autoscroll
font size
0
reset
how to read this tab
guitar tuner
edit
Autoscroll
slow
fast
+/-
esc
set tempo
stop
Artist: AIR
Song: Alone in Kyoto                                                   
Standard Tuning

Guitar 1: (G/1)(Acoustic)
Capo 5
Relative to capo

Guitar 2: (G/2)(Acoustic Nylon Strings)
Capo 5
Relative to capo

Guitar 3: (G/3)(Acoustic)
Capo 5
Relative to capo

[MAIN RIFF]
(G/1) (0:30) (repeat until BRIDGE)
e|-----5-------5-------5-------5-------5-------5-------5-------5---|Start
B|-----------------------------------------------------------------|(G/2)
G|-----------0---2-----------0---2-----------0---2-----------0---2-|at "x"
D|-------0-2-------------0-2-------------0-2-------------0-2-------|below
A|-0-------------------------------0-------------------------------|
E|-----------------------------------------------------------------|
                                   x           
(G/2) (0:35) (repeat 4x)
  Am               C                Am               C(add9)
e|------------------------------------------------------------3h0-----|1.______
B|------1p0--------------0h1p0--------------1h0------------------1h0--|2.(G/3)
G|----2-----0---2------0-------0---2------2-----0---2------0---------2|(1st)*
D|--2---------2------2-----------2------2---------2------2------------|3.(G/3)
A|0----------------3------------------0----------------3--------------|(2nd)*
E|--------------------------------------------------------------------|4.(G/3)
    x                                                                  (3rd)*
                                                       *at "x" on (G/2) below
(G/3) (0:46)                                                               
e|--0~~~~~~~--------------------7~~~~~~~--------------------0~~~~~~~--|
B|--5~~~~~~~--------------------0~~~~~~~--------------------5~~~~~~~--|
G|--5~~~~~~~--------------------0~~~~~~~--------------------5~~~~~~~--|
D|--7~~~~~~~--------------------5~~~~~~~--------------------7~~~~~~~--|
A|--7~~~~~~~--------------------7~~~~~~~--------------------7~~~~~~~--|
E|--x---------------------------7~~~~~~~--------------------x---------|
  (1st)*                      (2nd)*                      (3rd)*

[BRIDGE]
(G/1) (1:18)
e|-0~--0~--0~--0~--0~--0~--0~~---0~--0~--0~--0~--0~--0~--0~~~~--|Strum each
B|-1~--0~--1~--3~--1~--0~--1~~---1~--0~--1~--3~--1~--0~--3~~~~--|chord once
G|-2~--0~--2~--0~--2~--0~--2~~---2~--0~--2~--0~--2~--0~--0~~~~--|with "x" on
D|-3~--0~--2~--2~--3~--0~--2~~---3~--0~--2~--2~--3~--0~--2~~~~--|(G/2) below
A|-3~--2~--0~--0~--3~--2~--0~~---3~--2~--0~--0~--3~--2~--2~~~~--|
E|-1~--3~--x---x---1~--3~--x-----1~--3~--x---x---1~--3~--0~~~~--|
                                                          x
(G/2) (1:18)
  D5
e|---0-------0-------0-------0-------0-------0-------0-------0-----|
B|-------3-------3-------3-------3-------3-------3-------3-------3-|
G|-----2-------2-------2-------2-------2-------2-------2-------2---|*****
D|-----------------------------------------------------------------|*****
A|-0-0-0-0-0-0-0-0-0-0-0-0-0-0-0-0-0-0-0-0-0-0-0-0-0-0-0-0-0-0-0-0-|   **
E|-----------------------------------------------------------------|   **
   x               x               x               x                 ******
                                                                      ****
(G/2) (1:56)                                                           **
e|---0-------0-------0-----------|Fade out                      Repeat until
B|-------------------------------|                              chord on
G|-------------------------------|                              (G/1) above,
D|-------------------------------|                              then play
A|-0-0-0-0-0-0-0-0-0-0-0-0-0-0---|                              section below
E|-------------------------------|


[MAIN RIFF]
(G/2) (2:00) (repeat 4x)
  Am               C                Am               C(add9)
e|--------------------------------------------------------3h0-------|1.w/(G/1)Pt.1
B|------1p0-------------0h1p0-------------1h0-----------------1h0---|2.w/(G/1)Pt.2
G|----2-----0---2-----0-------0---2-----2-----0---2-----0---------2-|3.    "
D|--2---------2-----2-----------2-----2---------2-----2-------------|4.    "
A|0---------------3-----------------0---------------3---------------|
E|------------------------------------------------------------------|
      x       x       x         x       x       x       x ^     x

(G/1) Pt.1 (2:01)
e|----5-------5-------5-------5-------5-------5-------5-------5-|Play the "e"
B|--------------------------------------------------------------|string "5's"
G|------------------------------------------------------5-5-4-4-|@ "x's" on
D|--------------------------------------------------------------|(G/2) above,
A|--------------------------------------------------------------|start "G"
E|--------------------------------------------------------------|string at
                                                              "^" on (G/2)
(G/1) Pt.2 (2:12) (repeat until BRIDGE)                        above 
e|-------5-------5-------5-------5-|
B|---------5-5-3-3-----------------|
G|-2-2-2-2---------5-5-5-5-5-5-4-4-|
D|---------------------------------|
A|---------------------------------|
E|---------------------------------|

(G/3) (2:12)                                                              
e|--5~~~~~~~------------------0~~~~~~~------------------0~~~~~~~--|Strum 1st,
B|--5~~~~~~~------------------5~~~~~~~------------------1~~~~~~~--|2nd, & 3rd
G|--5~~~~~~~------------------5~~~~~~~------------------2~~~~~~~--|chord same
D|--7~~~~~~~------------------7~~~~~~~------------------2~~~~~~~--|as first 
A|--7~~~~~~~------------------7~~~~~~~------------------0~~~~~~~--|MAIN RIFF
E|--x-------------------------5~~~~~~~------------------x---------|
  (1st)*                      (2nd)*                      (3rd)*

[BRIDGE]
(G/1) (2:43)
e|-0~--0~--0~--0~--0~--0~--0~~---0~--0~--0~--0~--0~--0~--0~~~~-|Strum each
B|-1~--0~--1~--3~--1~--0~--1~~---1~--0~--1~--3~--1~--0~--3~~~~-|chord once
G|-2~--0~--2~--0~--2~--0~--2~~---2~--0~--2~--0~--2~--0~--0~~~~-|with "x" on
D|-3~--0~--2~--2~--3~--0~--2~~---3~--0~--2~--2~--3~--0~--2~~~~-|(G/2) below
A|-3~--2~--0~--0~--3~--2~--0~~---3~--2~--0~--2~--3~--2~--2~~~~-|
E|-1~--3~--x---x---1~--3~--x-----1~--3~--x---0~--1~--3~--0~~~~-|
                                                          x
(G/2) (2:43)
  D5
e|---0-------0-------0-------0-------0-------0-------0-------0-----|Repeat
B|-------3-------3-------3-------3-------3-------3-------3-------3-|until "x"
G|-----2-------2-------2-------2-------2-------2-------2-------2---|on last
D|-----------------------------------------------------------------|note on
A|-0-0-0-0-0-0-0-0-0-0-0-0-0-0-0-0-0-0-0-0-0-0-0-0-0-0-0-0-0-0-0-0-|(G/1)above,
E|-----------------------------------------------------------------|then play
   x               x               x               x            section below

(G/2) (3:20)
e|---0-------0-------0-------0-----|(Fade Out)
B|---------------------------------|
G|---------------------------------|
D|---------------------------------|
A|-0-0-0-0-0-0-0-0-0-0-0-0-0-0-0-0-|
E|---------------------------------|

[OUTRO]
(G/1)(3:29) (Moved Capo To 3rd Fret)
e|----------------0--------------------------------------------------0~~~~~~~--|
B|----0-----3--0-----3-----0-----------------------------------------0~~~~~~~--|
G|-------2--------------2--------0--2-----------0--2--------0-----2--4~~~~~~~--|
D|-2--------------------------2--------0--3--2--------0--2-----3-----4~~~~~~~--|
A|-------------------------------3-----1-----3-----1-----3-----1-----2~~~~~~~--|
E|-0-----1-----3-----1-----0-----------------------------------------x---------|

************************************

| x  Dead note
| h  Hammer-on
| p  Pull-off
| ~  Vibrato

************************************

            
            
Suggest correction
Creating personal tab
Creating personal tab
You can edit any tab online and save it as your Personal.

You can edit, replace or remove any tab part or add personal notes – all changes will be seen only by you.

Personal tabs can be accessed anytime from any device, even offline.
Learn more »
comments
print report bad tab
4 comments total. Showing first comments.
0 reply
BlueZephyr 40 Sep 30, 2008 06:48 PM

Perfect!

0 reply
macca223 70 Feb 10, 2009 06:55 AM

Fantastic, the ending is absolutely spot on. Thankyou!

+2 reply
evkal686 10 Jul 16, 2010 02:15 PM

Your Welcome!

I'm a little upset with this website, because when I initially posted this, i was registered, and it wasnt up for a few months - enough time for me to stop checking or caring. When i remembered and checked a long time later, it was up as an 'unregistered user'!

I don't mean to be a whiny b*tch (which is what I'm being right now), but come on! My first tab? I was proud!

-Shame shame Ultimate-Guitar.

guest
Wanna post a correction for this tab? Suggest correction