Oops, an error
Loading. Please wait.

Making Love Out Of Nothing At All bass

version 1
version 1

Whole song

Interactive

1,831 views 1 this week
no commentswrite comment
1 2 3 4 5
2 more votes to show rating
add to favorites
×
Save as Personal and add changes to this tab that will be seen only by you. Learn more ›
×
You can save this tab as Personal to edit and correct it or add notes. All changes will be seen only by you. Learn more »
launch autoscroll
font size
0
reset
guitar tuner
backing track
0:00
0:00
edit
Autoscroll
slow
fast
+/-
esc
set tempo
stop
Author
G|-----------------------------------------------------------------|
D|-5-------------------------------5---------------------------5---|
A|-----------------------------------------------------------------|
E|-----------------------------------------------------------------|
B|-----------------------------------------------------------------|
   1 + 2 + 3 + 4 + 1 + 2 + 3 + 4 + 1 + 2 + 3 + 4 + 1 + 2 + 3 + 4 +

G|-----------------------------------------------------------------|
D|-2-------------------------------2-------------------------------|
A|-----------------------------------------------------------------|
E|-----------------------------------------------------------------|
B|-----------------------------------------------------------------|
   1 + 2 + 3 + 4 + 1 + 2 + 3 + 4 + 1 + 2 + 3 + 4 + 1 + 2 + 3 + 4 +

G|-----------------------------------------------------------------|
D|-----------------------------------------------------------------|
A|-3-------------------------------5-------------------------------|
E|-----------------------------------------------------------------|
B|-----------------------------------------------------------------|
   1 + 2 + 3 + 4 + 1 + 2 + 3 + 4 + 1 + 2 + 3 + 4 + 1 + 2 + 3 + 4 +

0:20
G|-----------------------------------------------------------------|
D|-5---------------------------5-r-2-------------------------------|
A|-----------------------------------------------------------------|
E|-----------------------------------------------------------------|
B|-----------------------------------------------------------------|
   1 + 2 + 3 + 4 + 1 + 2 + 3 + 4 + 1 + 2 + 3 + 4 + 1 + 2 + 3 + 4 +

G|-----------------------------------------------------------------|
D|-----------------------------------------------------------------|
A|-3-----------------------3---3-3-5---------------------------5---|
E|-----------------------------------------------------------------|
B|-----------------------------------------------------------------|
   1 + 2 + 3 + 4 + 1 + 2 + 3 + 4 + 1 + 2 + 3 + 4 + 1 + 2 + 3 + 4 +

G|-----------------------------------------------------------------|
D|-5---------------------------5-r-2-----------------------2---0---|
A|-----------------------------------------------------------------|
E|-----------------------------------------------------------------|
B|-----------------------------------------------------------------|
   1 + 2 + 3 + 4 + 1 + 2 + 3 + 4 + 1 + 2 + 3 + 4 + 1 + 2 + 3 + 4 +

G|-----------------------------------------------------------------|
D|-----------------------------------------------------------------|
A|-3-----------------------3---3---5---------------------------5---|
E|-----------------------------------------------------------------|
B|-----------------------------------------------------------------|
   1 + 2 + 3 + 4 + 1 + 2 + 3 + 4 + 1 + 2 + 3 + 4 + 1 + 2 + 3 + 4 +

0:49
G|-----------------------------------------------------------------|
D|-5---------------------------9-\-2-----------------------17\-----|
A|-----------------------------------------------------------------|
E|-------------------------------------------------------------3---|
B|-----------------------------------------------------------------|
   1 + 2 + 3 + 4 + 1 + 2 + 3 + 4 + 1 + 2 + 3 + 4 + 1 + 2 + 3 + 4 +

G|-----------------------------------------------------------------|
D|-------------------------------------------------------------4---|
A|---------------------------/-7---5-------------------0---5-------|
E|-----------------------------------------------------------------|
B|-1-----------------------------------------------3---------------|
   1 + 2 + 3 + 4 + 1 + 2 + 3 + 4 + 1 + 2 + 3 + 4 + 1 + 2 + 3 + 4 +

1:03
G|---------------------4h5-7---------------------------------------|
D|-5---------------------------9-\-2---------------2---5---2h4-----|
A|-------------------------------------------------------------5---|
E|-----------------------------------------------------------------|
B|-----------------------------------------------------------------|
   1 + 2 + 3 + 4 + 1 + 2 + 3 + 4 + 1 + 2 + 3 + 4 + 1 + 2 + 3 + 4 +

G|-------------------------------------------------7---------------|
D|---------------------------5---5---------------7---------4-------|
A|-------------3-----------3---3---5-------------------------------|
E|-----------------------------------------------------------------|
B|-1---------------------------------------------------------------|
   1 + 2 + 3 + 4 + 1 + 2 + 3 + 4 + 1 + 2 + 3 + 4 + 1 + 2 + 3 + 4 +

1:17
G|-----------------------------------------------------4-2-0-------|
D|-5---------------5-----------0---2---------------2---------------|
A|---------------5-----5-3-2---------------------2-----------------|
E|-----------------------------------------------------------------|
B|-------------------------------------------------------------0---|
   1 + 2 + 3 + 4 + 1 + 2 + 3 + 4 + 1 + 2 + 3 + 4 + 1 + 2 + 3 + 4 +

G|---------------------5-------------------------7-----------------|
D|-----------------------5-----5---------------7-------------------|
A|-------------------------3-3-----5-----------------------10-\----|
E|-----------------------------------------------------------------|
B|-1---------------------------------------------------------------|
   1 + 2 + 3 + 4 + 1 + 2 + 3 + 4 + 1 + 2 + 3 + 4 + 1 + 2 + 3 + 4 +

1:30
G|-------------------------------------------------------------------|
D|---------------3-----------------3-------5-------7-----------12h14-|
A|-3-------------------3---------------------------------------------|
E|-------------------------------------------------------------------|
B|-------------------------------------------------------------------|
   1 + 2 + 3 + 4 + 1 + 2 + 3 + 4 + 1 + 2 + 3 + 4 + 1 + 2 + 3 + 4  +

G|-14--------------------------------------------------------------|
D|-----14----------------------------------------------------------|
A|---------12--\---7---------------------------5---3-----------3h7-|
E|-----------------------------------------------------------------|
B|-----------------------------------------------------------------|
   1 + 2 + 3 + 4 + 1 + 2 + 3 + 4 + 1 + 2 + 3 + 4 + 1 + 2 + 3 + 4 +

G|-----------------------------------------------------------------|
D|-----------------------------------------------------------------|
A|-5-----------------------------------------------7---------------|
E|---------2-------3-----------------------3---7-------------------|
B|-----------------------------------------------------------------|
   1 + 2 + 3 + 4 + 1 + 2 + 3 + 4 + 1 + 2 + 3 + 4 + 1 + 2 + 3 + 4 +


G|-----------------------------------------------------------------|
D|-----------------------------------------------------------------|
A|-------------5---3---------------------------5h7-5---------------|
E|-----------------------------------------------------------------|
B|-----------------------------------------------------------------|
   1 + 2 + 3 + 4 + 1 + 2 + 3 + 4 + 1 + 2 + 3 + 4 + 1 + 2 + 3 + 4 +

1:59
G|-----------------------------------------------------------------|
D|-----------------------------------------------------------------|
A|-5-----------------------------------------------7---------------|
E|---------2---5---3---------------------------7-------------------|
B|-----------------------------------------------------------------|
   1 + 2 + 3 + 4 + 1 + 2 + 3 + 4 + 1 + 2 + 3 + 4 + 1 + 2 + 3 + 4 +

G|-----------------------------------------------------------------|
D|-----------------------------------------------------------------|
A|-------------5-5-3---------------5-------------------------------|
E|---------------------------------------------5-5-3---------------|
B|-----------------------------------------------------------------|
   1 + 2 + 3 + 4 + 1 + 2 + 3 + 4 + 1 + 2 + 3 + 4 + 1 + 2 + 3 + 4 +

2:13
G|-----------------------------------------------------------------|
D|-----------------------------------------------------------------|
A|-----------------3-----------3-r-----------------------------2---|
E|---------------------------------2---------------3---------------|
B|-----------------------------------------------------------------|
   1 + 2 + 3 + 4 + 1 + 2 + 3 + 4 + 1 + 2 + 3 + 4 + 1 + 2 + 3 + 4 +

G|---------------------------------------------------------------7-|
D|-------------------------------------------------------------9---|
A|-3-------------------------------------------5---7---------------|
E|-----------------5-----------5---7-------------------------------|
B|-----------------------------------------------------------------|
   1 + 2 + 3 + 4 + 1 + 2 + 3 + 4 + 1 + 2 + 3 + 4 + 1 + 2 + 3 + 4 +

G|-9---------------------------------------------------------------|
D|-----------------------------------------------------------------|
A|---7-7-7---7-7-\-3-------------------------------2-----------2---|
E|---------------------------------2-------------------------------|
B|-----------------------------------------------------------------|
   1 + 2 + 3 + 4 + 1 + 2 + 3 + 4 + 1 + 2 + 3 + 4 + 1 + 2 + 3 + 4 +

2:34
G|-------------------------9---------------------------------------|
D|---------------------10------10----------------------------------|
A|-3---------------3---------------0-------------------------------|
E|---------------------------------------------5---2-----------5---|
B|-----------------------------------------------------------------|
   1 + 2 + 3 + 4 + 1 + 2 + 3 + 4 + 1 + 2 + 3 + 4 + 1 + 2 + 3 + 4 +

G|---------------------------------------------------------------------------------|
D|---------------------------------------------------------7-----------------------|
A|-------------2---3---------------3-------------------7-------7---5-5-5-5-5-5-5-5-|
E|-3-----------------------------------------------5-------------------------------|
B|---------------------------------------------------------------------------------|
   1 + 2 + 3 + 4 + 1 + 2 + 3 + 4 + 1 + 2 + 3 + 4 + 1 + 2 + 3 + 4 + 1 + 2 + 3 + 4 +

2:49
G|-----------------------------------------------------------------|
D|-----------------5---------------------------5---5-----------0---|
A|---------------5-------------5-----------------5-----5-3-2-------|
E|-3-------------------------------3-------------------------------|
B|-----------------------------------------------------------------|
   1 + 2 + 3 + 4 + 1 + 2 + 3 + 4 + 1 + 2 + 3 + 4 + 1 + 2 + 3 + 4 +

G|-----------------------------------------------------------------|
D|-2---------------2-----------------------------------5-4-2-------|
A|---------------2-------------------------------5-7-----------2---|
E|-----------------------------3---0-------------------------------|
B|-----------------------------------------------------------------|
   1 + 2 + 3 + 4 + 1 + 2 + 3 + 4 + 1 + 2 + 3 + 4 + 1 + 2 + 3 + 4 +

G|-----------------------------------------------------------------|
D|-----------------------------5---------------------------4---7---|
A|-3---------------3---------------5---------------5---5-----------|
E|---------------3-------------------------------------------------|
B|-----------------------------------------------------------------|
   1 + 2 + 3 + 4 + 1 + 2 + 3 + 4 + 1 + 2 + 3 + 4 + 1 + 2 + 3 + 4 +

G|---------------------------------|
D|---------4-4-7-7-----4-4-5-5-7-7-|
A|-5-5-5-5---------5-5-------------|
E|---------------------------------|
B|---------------------------------|
   1 + 2 + 3 + 4 + 1 + 2 + 3 + 4 + 

3:13
G|-----------------------------------------------------------------|
D|-----------------5---------------2---------------2---4h5p4---2-0-|
A|---------------5-----5---2---5-----------------2-----------------|
E|-3---------------------------------------------------------------|
B|-----------------------------------------------------------------|
   1 + 2 + 3 + 4 + 1 + 2 + 3 + 4 + 1 + 2 + 3 + 4 + 1 + 2 + 3 + 4 +

G|---------------------5---------------------------9-7-------------|
D|-------------------------------2-0---0-0-0---0-9-----9-----------|
A|-3---------------3-----------3---------------------------2-0-----|
E|---------------3---------------------------------------------3-2-|
B|-----------------------------------------------------------------|
   1 + 2 + 3 + 4 + 1 + 2 + 3 + 4 + 1 + 2 + 3 + 4 + 1 + 2 + 3 + 4 +

3:27
G|-----------------------------------------------------------------|
D|-----------------5---------------2---------------2---------------|
A|---------------5-----5---2---5-----------------2---2---------0-2-|
E|-3---------------------------------------------------4-2-0-------|
B|-----------------------------------------------------------------|
   1 + 2 + 3 + 4 + 1 + 2 + 3 + 4 + 1 + 2 + 3 + 4 + 1 + 2 + 3 + 4 +

G|---------------------5-------------------------------------------|
D|-----------------------------------------------------------------|
A|-3---------------3-----------3-4-5---5-5-5---------------9-\-----|
E|---------------3-------------------------------------------------|
B|-----------------------------------------------------------------|
   1 + 2 + 3 + 4 + 1 + 2 + 3 + 4 + 1 + 2 + 3 + 4 + 1 + 2 + 3 + 4 +

3:41
G|------------------------------------------------------------------|
D|---------------3-----------------3-------5-------7-----/-14-------|
A|-3-------------------3--------------------------------------------|
E|------------------------------------------------------------------|
B|------------------------------------------------------------------|
   1 + 2 + 3 + 4 + 1 + 2 + 3 + 4 + 1 + 2 + 3 + 4 + 1 + 2 + 3 + 4 +

G|-14--------------------------------------------------------------|
D|-----------------------------------------------------------------|
A|---------12--\---7-----------------------7---\---3---------------|
E|-----------------------------------------------------------------|
B|-----------------------------------------------------------------|
   1 + 2 + 3 + 4 + 1 + 2 + 3 + 4 + 1 + 2 + 3 + 4 + 1 + 2 + 3 + 4 +

G|-----------------------------------------------------------------|
D|-----------------------------------------------0-2---------------|
A|-5-------------------------------------------2-------------------|
E|---------2-------3-----------------------------------------------|
B|-----------------------------------------------------------------|
   1 + 2 + 3 + 4 + 1 + 2 + 3 + 4 + 1 + 2 + 3 + 4 + 1 + 2 + 3 + 4 +

G|-----------------------------------------------------------------|
D|---------------0-----------------------------5-4-----------------|
A|-------------2---3-------------------------------5-------------5-|
E|-----------------------------------------------------------------|
B|---------------------------------1-------------------------------|
   1 + 2 + 3 + 4 + 1 + 2 + 3 + 4 + 1 + 2 + 3 + 4 + 1 + 2 + 3 + 4 +

4:08
G|-----------------------------------------------------------------|
D|---------------------------------------------0-4-2---------------|
A|-----------------------------------------------------------------|
E|---------2-------3-----------------------------------------------|
B|-3---------------------------------------------------------------|
   1 + 2 + 3 + 4 + 1 + 2 + 3 + 4 + 1 + 2 + 3 + 4 + 1 + 2 + 3 + 4 +

G|------------------------------------------------------------------|
D|-------------2-0-----------------------------5-4-0-------------12-|
A|-----------------3------------------------------------------------|
E|------------------------------------------------------------------|
B|------------------------------------------------------------------|
   1 + 2 + 3 + 4 + 1 + 2 + 3 + 4 + 1 + 2 + 3 + 4 + 1 + 2 + 3 + 4 +

G|-----------------------------------------------------------------|
D|-0-------------------------------5-----------------------------0-|
A|-------------------------------5-----------------------------2---|
E|---------2-------3-----------3---------------3-2-0---------------|
B|-----------------------------------------------------------------|
   1 + 2 + 3 + 4 + 1 + 2 + 3 + 4 + 1 + 2 + 3 + 4 + 1 + 2 + 3 + 4 +

4:28
G|---------------------------------5-------------------------------|
D|-2-----------2---------------5-----------------------------------|
A|---------------2-3-----------------------3-------5-------5-------|
E|-----------------------------------------------------------------|
B|-----------------------------------------------------------------|
   1 + 2 + 3 + 4 + 1 + 2 + 3 + 4 + 1 + 2 + 3 + 4 + 1 + 2 + 3 + 4 +

G|-----------------------------------------------------------------|
D|---------------------------------5-----------------------------0-|
A|-5-------5---------------------5-----------------------------2---|
E|-------------3-2-3-----------3---------------3-2-0---------------|
B|-----------------------------------------------------------------|
   1 + 2 + 3 + 4 + 1 + 2 + 3 + 4 + 1 + 2 + 3 + 4 + 1 + 2 + 3 + 4 +

G|---------------------------------5-------5---------------------------------------|
D|-2-------4---5-------------------------------------------------------------------|
A|-----------------3-------------------3-------3-3-5-------5-------5-5-5-5-5-5-5-5-|
E|---------------------------------------------------------------------------------|
B|---------------------------------------------------------------------------------|
   1 + 2 + 3 + 4 + 1 + 2 + 3 + 4 + 1 + 2 + 3 + 4 + 1 + 2 + 3 + 4 + 1 + 2 + 3 + 4 +

4:50
G|-----------------------------------------------------------------|
D|---------------0-5---0-------------------------0-2---------------|
A|-------------------------2---------------------------2-------2---|
E|-3-----------3---------------3---0-----------------------3-------|
B|-----------------------------------------------------------------|
   1 + 2 + 3 + 4 + 1 + 2 + 3 + 4 + 1 + 2 + 3 + 4 + 1 + 2 + 3 + 4 +


G|-----------------------------------------------------------------|
D|---------------------0---2---------------------------------------|
A|-3-------------3-3-----------3---5-------5-------5---------------|
E|-----------------------------------------------------5-------2---|
B|-------------------------------------3-------3-----------3-------|
   1 + 2 + 3 + 4 + 1 + 2 + 3 + 4 + 1 + 2 + 3 + 4 + 1 + 2 + 3 + 4 +

5:03
G|-----------------------------------------------------------------|
D|---------------0-5---0-------------------------0-2---4---5-------|
A|-------------------------2-----------------------------------5---|
E|-3-----------3---------------3---0-------------------------------|
B|-----------------------------------------------------------------|
   1 + 2 + 3 + 4 + 1 + 2 + 3 + 4 + 1 + 2 + 3 + 4 + 1 + 2 + 3 + 4 +

G|-----------------------------------------------------------------|
D|-----------------5-------5---------------------------------------|
A|-3-----------3-------3-------3---5---5---5---5---5---5---5---5---|
E|-----------------------------------------------------------------|
B|-----------------------------------------------------------------|
   1 + 2 + 3 + 4 + 1 + 2 + 3 + 4 + 1 + 2 + 3 + 4 + 1 + 2 + 3 + 4 +

5:17
G|-----------------------------------------------------------------|
D|---------------0-5---0-------------------------0-2-----------0---|
A|-------------------------2---------------------------------------|
E|-3-----------3---------------3---0-------------------------------|
B|-----------------------------------------------------------------|
   1 + 2 + 3 + 4 + 1 + 2 + 3 + 4 + 1 + 2 + 3 + 4 + 1 + 2 + 3 + 4 +

G|-----------------------------------------------------------------|
D|-----------------------------------------------------------------|
A|-3---3---3---3---3-3-3-3-3-3-3-3-5-5-5-5-5-5-5-5-5-5-5-5-5-5-5-5-|
E|-----------------------------------------------------------------|
B|-----------------------------------------------------------------|
   1 + 2 + 3 + 4 + 1 + 2 + 3 + 4 + 1 + 2 + 3 + 4 + 1 + 2 + 3 + 4 +

G|-----------------------------------------------------------------|
D|-----------------------------------------------------------------|
A|-------------------------------------------------------------2---|
E|-3-------3-------3-------3---2---0-------0-------0-------0-------|
B|-----------------------------------------------------------------|
   1 + 2 + 3 + 4 + 1 + 2 + 3 + 4 + 1 + 2 + 3 + 4 + 1 + 2 + 3 + 4 +

G|---------------------------------|
D|---------------------------------|
A|-3-------3-------3-------3-------|
E|---------------------------------|
B|---------------------------------|
   1 + 2 + 3 + 4 + 1 + 2 + 3 + 4 + 
Tabbed by Dave Vucko

            
            
Suggest correction
Creating personal tab
Creating personal tab
You can edit any tab online and save it as your Personal.

You can edit, replace or remove any tab part or add personal notes – all changes will be seen only by you.

Personal tabs can be accessed anytime from any device, even offline.
Learn more »
Give kudos to tab author, rate the tab!
1 2 3 4 5
comments
print report bad tab
guest
You may want to rate the tab now too:
select rating
Wanna post a correction for this tab? Suggest correction