Oops, an error
Loading. Please wait.

Shooting Star tab

version 3
version 3

Whole song

Interactive

4,187 views 3 this week
2 commentsread comments
1 2 3 4 5
x 3
add to favorites
×
Save as Personal and add changes to this tab that will be seen only by you. Learn more ›
×
You can save this tab as Personal to edit and correct it or add notes. All changes will be seen only by you. Learn more »
launch autoscroll
font size
0
reset
how to read this tab
guitar tuner
edit
Autoscroll
slow
fast
+/-
esc
set tempo
stop
Author
Difficulty
-------------------------------------------------------------------------------
                            SHOOTING STAR - Air Traffic
-------------------------------------------------------------------------------

| /  Slide up
| \  Slide down
| p  Pull-off
| ~  Vibrato
| b  Bend

Verse 1 – Piano & Vocals Only - x15

Chorus 1 - With accenting on Drum beats.
e|---------------------------------------------------------------------|
B|----13-13-13-13-13-13-13--15-15-15-15-15-15-15--13-13-13-13-13-13-13-|
G|-/14--------------------14--------------------14---------------------|
D|---------------------------------------------------------------------|
A|---------------------------------------------------------------------|
E|---------------------------------------------------------------------|

|---------------------------|
|---------------------------|
|-14-14-12-14-14b14-12~(14)-|
|---------------------------| x2  (14) = Second Time Ending
|---------------------------|
|---------------------------|

Verse 2 – Same as Verse 1 - x15

|-------------------------|
|-------------------------|
|-14-14-14-14-14-14-14-14-|  x2 (Progressively Louder)
|-------------------------|
|-------------------------|
|-------------------------|

Chorus 2 - With accenting on Drum beats.
|---------------------------------------------------------------------|
|----13-13-13-13-13-13-13--15-15-15-15-15-15-15--13-13-13-13-13-13-13-|
|-/14--------------------14--------------------14---------------------|
|---------------------------------------------------------------------|
|---------------------------------------------------------------------|
|---------------------------------------------------------------------|

|-------------------------------------------------------------------------|
|-------------------------13-13-13-13-13-13-13-13-12-12-12-12-12-12-12-12-|
|-/14-14-14-14-14-14-14-14------------------------------------------------|
|-------------------------------------------------------------------------|
|-------------------------------------------------------------------------|
|-------------------------------------------------------------------------|

 1st Time Ending                   2nd Time Ending
|-------------------------|       |-----------------------------|
|-/15-15-15-15-15-15-15-15|       |-/15-15-15-15----------------|
|-------------------------|       |-------------14-12-14-12-14~-|
|-------------------------|       |-----------------------------|
|-------------------------|       |-----------------------------|
|-------------------------|       |-----------------------------|

Verse 3 – Same As Verse 2.
Chorus 3 – Same As Chorus 2.
Bridge - Instrumental - x8

Solo
|---------------------------------------------------|
|----8----------------------------------------------|
|-/9--9-7---7-------------------------------------7-|
|---------10--10-7-10-7-7-7-7-7---7-7-7-7-10-7-10---|  x2
|------------------------------10-------------------|
|---------------------------------------------------|

|-------------------------------------------------------------------|
|----8----8-/10-10-10-10-10-10-10-10-/13-13-13-13-13-13\12-12-12-12-|
|-/9--9-7-----------------------------------------------------------|
|-------------------------------------------------------------------|
|-------------------------------------------------------------------|
|-------------------------------------------------------------------|

^^^Repeat, though only play first riff once^^^

|------------------------------------------------|
|----8-------------------------------------------|
|-/9--9-7--7-----------------------------------7-|
|--------10-10-7-10-7-7-7-7-7--7-7-7-7-10-7-10---|
|----------------------------10------------------|
|------------------------------------------------|

|----------------------------------/8-8-8-8-7-7\-|
|----8-------------------------------------------|
|-/9--9-7--7-------------------------------------|
|--------10-10-7-10-7-7-7-7-7--7-7---------------|
|----------------------------10------------------|
|------------------------------------------------|

|--------------------------------------------------------------|
|----8---------------------------------------------------------|
|-/9--9-7--7-----------------/7-7-7-/9-9-9-/12-12-12-/14-14-14-|
|--------10-10-7-10-10-10-10-----------------------------------|
|--------------------------------------------------------------|
|--------------------------------------------------------------|

Bridge/End Of Solo
|-------------------------------------------------------------------------|
|/13-13-13-13-13-13\12-12-12-12-12-12/15-15-15-15-15-15\10-10-10-10-10-10-|
|-------------------------------------------------------------------------|
|-------------------------------------------------------------------------|
|-------------------------------------------------------------------------|
|-------------------------------------------------------------------------|

|--------------|
|-10-10--------|
|--------------|
|--------------|  x2
|--------------|
|--------------|

|-------------------------------------------------------------------------|
|-13p12--13p12--13p12-13p12—-13p12--13p12-13p12--13p12--13p12-13-15-15-15-|
|------14-----14-----------14-----14-----------14-----14------------------|
|-------------------------------------------------------------------------|
|-------------------------------------------------------------------------|
|-------------------------------------------------------------------------|

|--------------------|
|-15-15-15-15--------|
|--------------------|
|--------------------|
|--------------------|
|--------------------|

|-------------------------------------------------------------------------|
|-------------------------13-13-13-13-13-13-13-13-12-12-12-12-12-12-12-12-|
|-/14-14-14-14-14-14-14-14------------------------------------------------|
|-------------------------------------------------------------------------|
|-------------------------------------------------------------------------|
|-------------------------------------------------------------------------|

|-----------------------------|
|-/15-15-15-15----------------|
|-------------14-12-14-12-14~-|
|-----------------------------|
|-----------------------------|
|-----------------------------|

            
            
Suggest correction
Creating personal tab
Creating personal tab
You can edit any tab online and save it as your Personal.

You can edit, replace or remove any tab part or add personal notes – all changes will be seen only by you.

Personal tabs can be accessed anytime from any device, even offline.
Learn more »
Give kudos to tab author, rate the tab!
1 2 3 4 5
comments
print report bad tab
2 comments total.
+1 reply
phil conry 229 Oct 13, 2009 03:46 PM

seems spot on, at any rate its exactly how i figured out anyway.
one minor thing, i think i do this instead of what you put at the very end of the intro guitar bit:

e|---------------------------|
B|---------------------------|
G|-14-14-12-14-14b14-12~(14)-| x2 (14) = Second Time Ending
D|---------------------------|
A|---------------------------|
E|---------------------------|
so youre bending the 14th on the G instead of the 12th on the B.

but that said, its like a one note discrepancy so to be honest who gives el shit.
definate 5 stars from over here bro.

0 reply
651Tom 554 Oct 14, 2009 02:45 AM, edited on April 24 2014, 11:50 am

Thank you very much for the correction, and for the kind words, I've made the modification now x

guest
You may want to rate the tab now too:
select rating
Wanna post a correction for this tab? Suggest correction