Oops, an error
Loading. Please wait.

Shooting Star tab

version 4
version 4

Whole song

Interactive

741 views 1 this week
no commentswrite comment
1 2 3 4 5
3 more votes to show rating
add to favorites
×
Save as Personal and add changes to this tab that will be seen only by you. Learn more ›
×
You can save this tab as Personal to edit and correct it or add notes. All changes will be seen only by you. Learn more »
launch autoscroll
font size
0
reset
how to read this tab
guitar tuner
edit
Autoscroll
slow
fast
+/-
esc
set tempo
stop
Author
-------------------------------------------------------------------------------
                             Shooting Star - Air Traffic
-------------------------------------------------------------------------------
Tabbed by: Kroc90
Email:sg_nl90@yahoo.co.uk

My girlfriend loves this song and so figured out the lead bits and then worked
extremely hard on the chords, which took alot of theory swatting to work out 
the key etc.
Took a while to fine tune everything and I hope the chord names are right. 
Listen to the song for exact timing and enjoy the tab. And plaease rate

Tuning:eBGDAE
Tempo is 144 or 145

Chords Used
  Am7sus4                              Em7sus4       G9/11
(A4 for short) Em7 Fsus2 G11 Dm7 C (E4for Short) F9  (G11) F  C?  G9
e|--0-----------0----1----3---1--0-------3--------3----3---1--3---3--------|
B|--2-----------3----1----1---1--1-------3--------1----1---1--3---0--------|
G|--4-----------0----0----0---2--0-------2--------2----0---2--2---2--------|
D|--1-----------0----3----0---0--2-------2--------3----0---3--2---0--------|
A|--0-----------2---------2------3-------2-------------0---3--3---0--------|
E|--------------2---------3--------------0-------------3---1------3--------|

Verse 1
A4           Em7           Fsus2    G11           Dm7         Fsus2 
  Pretty if the sun won't shine        I'll be coming back to meet you, I'll
      C                 G11
be there to make you mine.
A4                      Em7      Fsus2   G11            Dm7          Fsus2
   You're pretty if the rain will pour.    I'll be knocking at your window, 
        C                  G11
I'll be begging you for more.

 Bridge
e|-------------------------------------------------------------------------|
B|----13-13-13-13-13-13-13----15-15-15-15-15-15-15----13-13-13-13-13-13-13-|
G|-14----------------------14----------------------14----------------------|
D|-------------------------------------------------------------------------|
A|-------------------------------------------------------------------------|
E|-------------------------------------------------------------------------|
    A4                       E4                      F9
e|-------------------------------|
B|----------------12-------------|
G|---14-14-12-14-----14-12--14---|
D|-------------------------------|
A|-------------------------------|
E|-------------------------------|
    G11
e|-------------------------------------------------------------------------|
B|----13-13-13-13-13-13-13----15-15-15-15-15-15-15----13-13-13-13-13-13-13-|
G|-14----------------------14----------------------14----------------------|
D|-------------------------------------------------------------------------|
A|-------------------------------------------------------------------------|
E|-------------------------------------------------------------------------|
    A4                       E4                     F9
e|-------------------------------------------------------------------------|
B|--------------12---------------------------------------------------------|
G|-14-14-12-14-----14-12--14-----------------------------------------------|
D|-------------------------------------------------------------------------|
A|-------------------------------------------------------------------------|
E|-------------------------------------------------------------------------|
    G11
Verse 2

A4                        Em7      Fsus2  G11              Dm7        Fsus2
  It's as if you've come along too soon,   and I'm trying to fit you in but 
        C                 G11
I can't seem to find the room.    
A4            Em7       Fsus2    G11            Dm7         Fsus2          C
  Cutie if it all fell through,    We can piece it back together I can learn 
             G11
to love you too.  And you're just

Chorus

e|-------------------------------------------------------------------------|
B|----13-13-13-13-13-13-13----15-15-15-15-15-15-15----13-13-13-13-13-13-13-|
G|-14----------------------14----------------------14----------------------|
D|-------------------------------------------------------------------------|
A|-------------------------------------------------------------------------|
E|-------------------------------------------------------------------------|
   F                       C?                        G11     
  You're    too     good-------------- to    lose   and    i      can't----  
e|------------------------------|
B|----------------12------------|
G|---14-14-12-14-----14-12--14--|
D|------------------------------|
A|------------------------------|
E|------------------------------|
    G9
        re---fuse--------
e|-------------------------------------------------------------------------|
B|----13-13-13-13-13-13-13----15-15-15-15-15-15-15----13-13-13-13-13-13-13-|
G|-14----------------------14----------------------14----------------------|
D|-------------------------------------------------------------------------|
A|-------------------------------------------------------------------------|
E|-------------------------------------------------------------------------|
     F                     C?                        G11
       so    don't    make----------   me   choose-----    between-----
e|------------------------------|
B|----------------12------------|
G|---14-14-12-14-----14-12--14--|
D|------------------------------|
A|------------------------------|
E|------------------------------|
    G9
         the            two
e|-------------------------------------------------------------------------|
B|10-10-10-10-10-10-10-10--13-13-13-13-13-13-13-13-12-12-12-12-12-12-12-12-|
G|-------------------------------------------------------------------------|
D|-------------------------------------------------------------------------|
A|-------------------------------------------------------------------------|
E|-------------------------------------------------------------------------|
   F                         C?                      G11
     I'm    better---               in--- here           in my      at -
e|---------------------------|
B|--15-15-15-15-15-15-15-15--|
G|---------------------------|
D|---------------------------|
A|---------------------------|
E|---------------------------|
   G9
      -mos--phere-------
e|-------------------------------------------------------------------------|
B|10-10-10-10-10-10-10-10-13-13-13-13-13-13-13-13--12-12-12-12-12-12-12-12-|
G|-------------------------------------------------------------------------|
D|-------------------------------------------------------------------------|
A|-------------------------------------------------------------------------|
E|-------------------------------------------------------------------------|
  F                        C?                        G11
   Don't   you    know      who    you    are?         You're   my   shoot-
e|---------------------------|
B|--15-15-15-15-15-15-15-15--|
G|---------------------------|
D|---------------------------|
A|---------------------------|
E|---------------------------|
    G9
     -ing star

Verse 3

e|-------------------------------------------------------------------------|
B|--10 Hold and slide down-------------------------------------------------|
G|-------------------------------------------------------------------------|
D|-------------------------------------------------------------------------|
A|-------------------------------------------------------------------------|
E|-------------------------------------------------------------------------|
 A4                  Em7        Fsus2    G11            Dm7           Fsus2
    Pretty teach me wrong from right,     cos' in love there are no answers
       C                  G11
and in life there is no line.
A4               Em7        Fsus2    G11               Dm7            Fsus2
    Pretty if the sun won't shine.      Now you've come this far to meet me
       C                  G11
and know,  I know you're mine.   And you're just

Chorus

e|-------------------------------------------------------------------------|
B|----13-13-13-13-13-13-13----15-15-15-15-15-15-15----13-13-13-13-13-13-13-|
G|-14----------------------14----------------------14----------------------|
D|-------------------------------------------------------------------------|
A|-------------------------------------------------------------------------|
E|-------------------------------------------------------------------------|
   F                       C?                        G11     
  You're    too     good-------------- to    lose   and    i      can't----  
e|------------------------------|
B|----------------12------------|
G|---14-14-12-14-----14-12--14--|
D|------------------------------|
A|------------------------------|
E|------------------------------|
    G9
        re---fuse--------
e|-------------------------------------------------------------------------|
B|----13-13-13-13-13-13-13----15-15-15-15-15-15-15----13-13-13-13-13-13-13-|
G|-14----------------------14----------------------14----------------------|
D|-------------------------------------------------------------------------|
A|-------------------------------------------------------------------------|
E|-------------------------------------------------------------------------|
     F                     C?                        G11
       so    don't    make----------   me   choose-----    between-----
e|------------------------------|
B|----------------12------------|
G|---14-14-12-14-----14-12--14--|
D|------------------------------|
A|------------------------------|
E|------------------------------|
    G9
         the            two
e|-------------------------------------------------------------------------|
B|10-10-10-10-10-10-10-10-13-13-13-13-13-13-13-13--12-12-12-12-12-12-12-12-|
G|-------------------------------------------------------------------------|
D|-------------------------------------------------------------------------|
A|-------------------------------------------------------------------------|
E|-------------------------------------------------------------------------|
   F                         C?                      G11
     I'm    better---               in--- here           in my       at -

e|---------------------------|
B|--15-15-15-15-15-15-15-15--|
G|---------------------------|
D|---------------------------|
A|---------------------------|
E|---------------------------|
   G9
      -mos--phere-------
e|-------------------------------------------------------------------------|
B|10-10-10-10-10-10-10-10-13-13-13-13-13-13-13-13--12-12-12-12-12-12-12-12-|
G|-------------------------------------------------------------------------|
D|-------------------------------------------------------------------------|
A|-------------------------------------------------------------------------|
E|-------------------------------------------------------------------------|
  F                        C?                        G11
   Don't   you    know      who    you    are?         You're   my   shoot-
e|---------------------------|
B|--15-15-15-15-15-15-15-15--|
G|---------------------------|
D|---------------------------|
A|---------------------------|
E|---------------------------|
    G9
     -ing star

Solo

e|-------------------------------------------------------------------------|
B|--10---------------------------------------------------------------------|
G|-------------------------------------------------------------------------|
D|-------------------------------------------------------------------------|
A|-------------------------------------------------------------------------|
E|-------------------------------------------------------------------------|
   A4              Em7                   F9                 G11

e|-------------------------------------------------------------------------|
B|---(10)------------------------------------------------------------------|
G|-------------------------------------------------------------------------|
D|-------------------------------------------------------------------------|
A|-------------------------------------------------------------------------|
E|-------------------------------------------------------------------------|
  A4              Em7                   F9                 G11

e|-------------------------------------------------------------------------|
B|------8-----------7--------------------------------------------7-7-7-7---|
G|--/9----9--7--10-----10--9--10-9-9-9-9-9----9-9-9-9-9--10-9-10-----------|
D|-----------------------------------------10------------------------------|
A|-------------------------------------------------------------------------|
E|-------------------------------------------------------------------------|
  A4               Em7                  F9                G11

e|-------------------------------------------------------------------------|
B|------8-----------7--------------------------------------------7-7-7-7---|
G|--/9----9--7--10-----10--9--10-9-9-9-9-9----9-9-9-9-9--10-9-10-----------|
D|-----------------------------------------10------------------------------|
A|-------------------------------------------------------------------------|
E|-------------------------------------------------------------------------|
  A4               Em7                  F9                G11

e|-------------------------------------------------------------------------|
B|-----8--------8--8--10-10-10-10-10-13-13-13-13-13-12-12-12-12-12--7------|
G|-/9-----9--7-------------------------------------------------------------|
D|-------------------------------------------------------------------------|
A|-------------------------------------------------------------------------|
E|-------------------------------------------------------------------------|
  A4                 Em7                F9                G11

e|-------------------------------------------------------------------------|
B|------8-----------7--------------------------------------------7-7-7-7---|
G|--/9----9--7--10-----10--9--10-9-9-9-9-9----9-9-9-9-9--10-9-10-----------|
D|-----------------------------------------10------------------------------|
A|-------------------------------------------------------------------------|
E|-------------------------------------------------------------------------|
  A4               Em7                  F9                G11

e|-------------------------------------------------------------------------|
B|-----8--------8--8--10-10-10-10-10-13-13-13-13-13-12-12-12-12-12--7------|
G|-/9-----9--7-------------------------------------------------------------|
D|-------------------------------------------------------------------------|
A|-------------------------------------------------------------------------|
E|-------------------------------------------------------------------------|
  A4                 Em7                F9                G11

e|-------------------------------------------------------------------------|
B|-----8-------------------------------------------------------------------|
G|-/9-----9--7------7--------------------------------------------7-7-7-7-7-|
D|--------------10-----10--7--10--7-7-7-7-7----7-7-7-7-7-10-7-10-----------|
A|------------------------------------------10-----------------------------|
E|-------------------------------------------------------------------------|
  A4                 Em7                F9                G11

e|-------------------------------------------------------------------------|
B|-----8-------------------------------------------------------------------|
G|-/9-----9--7------7------------------------------------9-9-9-9-9---------|
D|--------------10-----10--7-10-10-10-10-10-12-12-12-12--------------------|
A|-------------------------------------------------------------------------|
E|-------------------------------------------------------------------------|
   A4                 Em7                F9                G11

e|-------------------------------------------------------------------------|
B|-15-15-15-15-15-15-15-15-12-12-12-12-12-12-12-12-13-13-13-13-13-13-13----|
G|-------------------------------------------------------------------------|
D|-------------------------------------------------------------------------|
A|-------------------------------------------------------------------------|
E|-------------------------------------------------------------------------|
   A4                      Em7                     F9

e|---------------------------|
B|-10-10-10-10-10-10-10-10---|
G|---------------------------|
D|---------------------------|
A|---------------------------|
E|---------------------------|
  G11

e|-------------------------------------------------------------------------|
B|-15-15-15-15-15-15-15-15-12-12-12-12-12-12-12-12-13-13-13-13-13-13-13----|
G|-------------------------------------------------------------------------|
D|-------------------------------------------------------------------------|
A|-------------------------------------------------------------------------|
E|-------------------------------------------------------------------------|
   A4                      Em7                     F9

e|---------------------------|
B|-10-10-10-10-10-10-10-10---|
G|---------------------------|
D|---------------------------|
A|---------------------------|
E|---------------------------|
  G11

e|-------------------------------------------------------------------------|
B|-13p12---13p12---13p12--13p12---13p12---13p12-13p12---13p12---13p12------|
G|------14------14-------------14------14------------14------14------------|
D|-------------------------------------------------------------------------|
A|-------------------------------------------------------------------------|
E|-------------------------------------------------------------------------|
  A4                    Em7                    F9  

e|--------------------------|
B|--13p12----15-15-15-15----|
G|-------14-----------------|
D|--------------------------|
A|--------------------------|
E|--------------------------|
  G11

Outro

e|-------------------------------------------------------------------------|
B|-10-10-10-10-10-10-10-10--13-13-13-13-13-13-13-13-12-12-12-12-12-12-12-12|
G|-------------------------------------------------------------------------|
D|-------------------------------------------------------------------------|
A|-------------------------------------------------------------------------|
E|-------------------------------------------------------------------------|
  F                        C?                        G11
   Don't   you    know      who    you    are?         You're   my   shoot-
e|---------------------------|------------|
B|--15-15-15-15-15-15-15-15--|-Hold 15----|
G|---------------------------|------------|
D|---------------------------|------------|
A|---------------------------|------------|
E|---------------------------|------------|
    G9                         Strum A4
     -ing star



| /  slide up
| \  slide down
| h  hammer-on
| p  pull-off
| ~  vibrato
| +  harmonic
| x  Mute note
===============================================================================

            
            
Suggest correction
Creating personal tab
Creating personal tab
You can edit any tab online and save it as your Personal.

You can edit, replace or remove any tab part or add personal notes – all changes will be seen only by you.

Personal tabs can be accessed anytime from any device, even offline.
Learn more »
Give kudos to tab author, rate the tab!
1 2 3 4 5
comments
print report bad tab
guest
You may want to rate the tab now too:
select rating
Wanna post a correction for this tab? Suggest correction