Oops, an error
Loading. Please wait.

Cicatrices bass

by Airbag
173 views 1 this week
no commentswrite comment
1 2 3 4 5
3 more votes to show rating
add to favorites
×
Save as Personal and add changes to this tab that will be seen only by you. Learn more ›
×
You can save this tab as Personal to edit and correct it or add notes. All changes will be seen only by you. Learn more »
launch autoscroll
font size
0
reset
guitar tuner
edit
Autoscroll
slow
fast
+/-
esc
set tempo
stop
Author
Difficulty
About this tab version
Esto seria la cancion en si, no es lo que toca exactamente el bajista pero es lo basico, es mi primer tab :P. Was this info helpful? Yes No
El tema se toca en un bajo de 5 cuerdas, pero lo adapté a uno de 4
El bajo entra al instante:

[Intro]
G |-----------------|-----------------|-----------------|-----------------|
D |-----------------|-----------------|-----------------|-----------------|
A |-4---------------|6----------------|-4---------------|-3----6-8--8---6-|
E |-------4---4-----|--------1--1-----|-------4--4------|-----------------|
    1 & 2 & 3 & 4 &   1 & 2 & 3 & 4 &   1 & 2 & 3 & 4 &   1 & 2 & 3 & 4 &

G |-----------------|-----------------|-----------------|-----------------|
D |-----------------|-----------------|-----------------|-----------------|
A |-4---------------|6-------8--8---6-|-4-----6--6------|-----------------|
E |-------4---4-----|------8----------|-----------------|-4~--------------|
    1 & 2 & 3 & 4 &   1 & 2 & 3 & 4 &   1 & 2 & 3 & 4 &   1 & 2 & 3 & 4 &


[Verse]
G |-----------------|-----------------|-----------------|-----------------|
D |3----------------|6----------------|3----------------|-----------------|
A |---------4-------|---------6-------|---------4-------|---------6-------|
E |-----------------|-----------------|-----------------|4----------------|
    1 & 2 & 3 & 4 &   1 & 2 & 3 & 4 &   1 & 2 & 3 & 4 &   1 & 2 & 3 & 4 &

G |-----------------|-----------------|-----------------|-----------------|
D |-----------------|-----------------|-----------------|-----------------|
A |-------2-3-4----|-------4-5-6------|4--------4-------|6----------6/----|
E |1----------------|4----------------|--------4--------|-----------------|
    1 & 2 & 3 & 4 &   1 & 2 & 3 & 4 &   1 & 2 & 3 & 4 &   1 & 2 & 3 & 4 &

[Chorus]
G |-----------------|-----------------|-----------------|-----------------|
D |-----------------|-----------------|-----------------|-----------------|
A |-4---------------|6----------------|-4-----------1-2-|-3----6-8--8---6-|
E |-------4---4-----|--------1--1-----|-------4--4------|-----------------|
    1 & 2 & 3 & 4 &   1 & 2 & 3 & 4 &   1 & 2 & 3 & 4 &   1 & 2 & 3 & 4 &

G |-----------------|-----------------|-----------------|-----------------|
D |-----------------|-----------------|-----------------|-----------------|
A |-4---------------|6--------------3-|-4-----------1-2-|3-----6--------3-|
E |-------4---4-----|--------1--1-----|-------4--4------|--------1----4---|
    1 & 2 & 3 & 4 &   1 & 2 & 3 & 4 &   1 & 2 & 3 & 4 &   1 & 2 & 3 & 4 &

[b]Parecido a la intro[/b]

G |-----------------|-----------------|-----------------|-----------------|
D |-----------------|-----------------|-----------------|-----------------|
A |-4---------------|6----------------|-4-----------1-2-|-3----6-8--8---6-|
E |-------4---4-----|--------1--1-----|-------4--4------|-----------------|
    1 & 2 & 3 & 4 &   1 & 2 & 3 & 4 &   1 & 2 & 3 & 4 &   1 & 2 & 3 & 4 &

G |-----------------|-----------------|-----------------|-----------------|
D |-----------------|-----------------|-----------------|-----------------|
A |-4---------------|6--------------3-|-4-----6--6------|-----------------|
E |-------4---4-----|------1----1-----|-----------------|-4~--------------|
    1 & 2 & 3 & 4 &   1 & 2 & 3 & 4 &   1 & 2 & 3 & 4 &   1 & 2 & 3 & 4 &

[2nd verse]

G |-----------------|-----------------|-----------------|-----------------|
D |3----------------|6----------------|3----------------|-----------------|
A |---------4-------|---------6-------|---------4-------|---------6-------|
E |-----------------|-----------------|-----------------|4----------------|
    1 & 2 & 3 & 4 &   1 & 2 & 3 & 4 &   1 & 2 & 3 & 4 &   1 & 2 & 3 & 4 &

G |-----------------|-----------------|-----------------|-----------------|
D |-----------------|-----------------|-----------------|-----------------|
A |-------2-3-4-----|-------4-5-6-----|4~---------------|6------6/--------|
E |1----------------|4----------------|-----------------|-----------------|
    1 & 2 & 3 & 4 &   1 & 2 & 3 & 4 &   1 & 2 & 3 & 4 &   1 & 2 & 3 & 4 &

[2nd chorus]

G |-----------------|-----------------|-----------------|-----------------|
D |-----------------|-----------------|-----------------|-----------------|
A |-4---------------|6-------8--8-----|-4-----------1-2-|-3----6-8--8---6-|
E |-------4---4-----|-----------------|-------4--4------|-----------------|
    1 & 2 & 3 & 4 &   1 & 2 & 3 & 4 &   1 & 2 & 3 & 4 &   1 & 2 & 3 & 4 &

G |-----------------|-----------------|-----------------|-----------------|
D |-----------------|-----------------|-----------------|----1--3---------|
A |-4---------------|6--------------3-|-4-----------1-2-|3-3---3------1-3-|
E |-------4---4-----|--------1--1-----|-------4--4------|-----------4-----|
    1 & 2 & 3 & 4 &   1 & 2 & 3 & 4 &   1 & 2 & 3 & 4 &   1 & 2 & 3 & 4 &

G |-----------------|-----------------|-----------------|-----------------|
D |-----------------|-----------------|-----------------|-----------------|
A |-4---------------|6-------8--8---6-|-4-----------1-2-|-3----6-------1-3|
E |-------4---4-----|-----------------|-------4--4------|-------1-1--4----|
    1 & 2 & 3 & 4 &   1 & 2 & 3 & 4 &   1 & 2 & 3 & 4 &   1 & 2 & 3 & 4 &

G |-----------------|-----------------|-----------------|-----------------|
D |-----------------|-----------------|-----------------|-----------------|
A |-4---------------|6-------8--8-----|-4-----------1-2-|-3----6-8--8---6-|
E |-------4---4-----|-----------------|-------4--4------|-----------------|
    1 & 2 & 3 & 4 &   1 & 2 & 3 & 4 &   1 & 2 & 3 & 4 &   1 & 2 & 3 & 4 &

Despues el tema sigue, pero con la misma tab, ahí pueden variar un poco.

***********************************

| h   Hammer-on
| x   Dead note
| /   Slide-up
| pb  Pre-bend
| ~   Vibrato
| .   Staccato

***********************************

            
            
Suggest correction
Creating personal tab
Creating personal tab
You can edit any tab online and save it as your Personal.

You can edit, replace or remove any tab part or add personal notes – all changes will be seen only by you.

Personal tabs can be accessed anytime from any device, even offline.
Learn more »
Give kudos to tab author, rate the tab!
1 2 3 4 5
comments
print report bad tab
guest
You may want to rate the tab now too:
select rating
Wanna post a correction for this tab? Suggest correction