Oops, an error
Loading. Please wait.
We have an official Back In The Game tab made by UG professional guitarists. Check out the tab »
×
16,063 views 54 this week
2 commentsread comments
1 2 3 4 5
x 5
add to favorites
×
Save as Personal and add changes to this tab that will be seen only by you. Learn more ›
×
You can save this tab as Personal to edit and correct it or add notes. All changes will be seen only by you. Learn more »
launch autoscroll
font size
0
reset
how to read this tab
guitar tuner
edit
Autoscroll
slow
fast
+/-
esc
set tempo
stop
Author
[Intro] 
(0:00 - 0:19)                                    
e|--2-2---------------------------------------------------|
B|--3-3---------------------------------------------------|
G|--2-2--5-5---------------------------5-5----------------|
D|--0-0--5-5--------------0----0-0h2/3-5-5----------------|
A|-------3-3--3h5r3p0-b2--0-0--0-0h2/3-3-3--5-3-0---------|
D|--------------------------0---------------5-3-0--15\----|

[Verse] 
(0:20 - 0:39)
        PM-     PM-
e|--2-2-----2-2------------------------|
B|--3-3-----3-3------------------------|
G|--2-2-----2-2-----5-5-5--------------| (x3)
D|--0-0-----0-0-----5-5-5--------------|
A|------0-0-----0-0-3-3-3-5---------0--|
D|------0-0-----0-0-------5-5h6-5-3-0--|

        PM-     PM-
e|--2-2-----2-2------------------------|
B|--3-3-----3-3------------------------|
G|--2-2-----2-2-----5-4-5--------------|
D|--0-0-----0-0-----5-4-5--------------|
A|------0-0-----0-0-3-2-3---------0----|
D|------0-0-----0-0-------5h6-5-3-0----|

[Instrumental]
(0:40 - 1:03)
e|--2-2---------------------------------------------------|
B|--3-3---------------------------------------------------|
G|--2-2--5-5---------------------------5-5----------------|
D|--0-0--5-5--------------0----0-0h2/3-5-5----------------|
A|-------3-3--3h5r3p0-b2--0-0--0-0h2/3-3-3--5-3-0---------|
D|--------------------------0---------------5-3-0--15\----|

[Verse] 
(1:14 - 1:33)
        PM-     PM-
e|--2-2-----2-2------------------------|
B|--3-3-----3-3------------------------|
G|--2-2-----2-2-----5-5-5--------------| (x3)
D|--0-0-----0-0-----5-5-5--------------|
A|------0-0-----0-0-3-3-3-5---------0--|
D|------0-0-----0-0-------5-5h6-5-3-0--|

        PM-     PM-
e|--2-2-----2-2------------------------|
B|--3-3-----3-3------------------------|
G|--2-2-----2-2-----5-4-5--------------|
D|--0-0-----0-0-----5-4-5--------------|
A|------0-0-----0-0-3-2-3---------0----|
D|------0-0-----0-0-------5h6-5-3-0----|

[Instrumental] 
(1:34 - 1:58)
e|--2-2---------------------------------------------------|
B|--3-3---------------------------------------------------|
G|--2-2--5-5---------------------------5-5----------------|
D|--0-0--5-5--------------0----0-0h2/3-5-5----------------|
A|-------3-3--3h5r3p0-b2--0-0--0-0h2/3-3-3--5-3-0---------|
D|--------------------------0---------------5-3-0--15\----|

[Instrumental]
(2:17 - 2:44)
e|--2-2---------------------------------------------------|
B|--3-3---------------------------------------------------|
G|--2-2--5-5---------------------------5-5----------------|
D|--0-0--5-5--------------0----0-0h2/3-5-5----------------|
A|-------3-3--3h5r3p0-b2--0-0--0-0h2/3-3-3--5-3-0---------|
D|--------------------------0---------------5-3-0--15\----|

[Outro] 
(2:45 - 3:25)
e|------------------|
B|------------------|
G|------5-5---------|
D|--3-3-5-5---------|
A|--3-3-3-3--5-3-0--|
D|-----------5-3-0--|

e|---------------------------------------------|
B|---------------------------------------------|
G|--3-5-7~----7~----7~----10-5-7~----7~----7~--| (x2)
D|--3-5-7~----7~----7~----10-5-7~----7~----7~--|
A|--1-3-5~----5~----5~----8--3-5~----5~----5~--|
D|---------------------------------------------|

e|----------------------2-2|
B|----------------------3-3|
G|--3~---5~---7~--------2-2|
D|--3~---5~---7~--------0-0|
A|--1~---3~---5~-----------|
D|-------------------------|


************************************

| h   Hammer-on
| /   Slide up
| p   Pull-off
| r   Release
| b   Bend
| \   Slide down
| PM  Palm mute
| ~   Vibrato

************************************

            
            
Suggest correction
Creating personal tab
Creating personal tab
You can edit any tab online and save it as your Personal.

You can edit, replace or remove any tab part or add personal notes – all changes will be seen only by you.

Personal tabs can be accessed anytime from any device, even offline.
Learn more »
comments
print report bad tab
2 comments total.
0 reply
LordDominico 59 Jun 25, 2013 12:39 PM

The intro is played twice, forgot to put that on so remember that.

0 reply
RAPTOR24 10 Dec 22, 2013 09:22 PM

Pretty good Tab. Just wanted a quick tab so I can jam along to the song when I'm bored and this fit the bill. Good job.

guest
You may want to rate the tab now too:
select rating
Wanna post a correction for this tab? Suggest correction