Oops, an error
Loading. Please wait.

Cheap Wine Cheaper Women tab

version 1
version 1

Whole song

11,288 views 6 this week
4 commentsread comments
1 2 3 4 5
x 3
add to favorites
×
Save as Personal and add changes to this tab that will be seen only by you. Learn more ›
×
You can save this tab as Personal to edit and correct it or add notes. All changes will be seen only by you. Learn more »
launch autoscroll
font size
0
reset
how to read this tab
guitar tuner
edit
Autoscroll
slow
fast
+/-
esc
set tempo
stop
Author
Difficulty
             Cheap Wine & Cheaper Women - Airbourne
Tabbed by: soulflyV
Email: nuke-the-emos@hotmail.com - for contributions/corrections


    Main/Chorus Riff
e|---------------------------------------------------------------|
B|-------------------------------3-------------------------------|
G|-------------------------------2--2----------------------------|
D|---------0------2---0h2-0--0---0--2----------------------------|
A|-2--0h2-----0h2-----------2-------0----------------------------|
E|-0-------------------------------------------------------------|


Part After Solo
e|---------------------------------------7----7/15-12~~-14-15~~--14-15-14~-|
B|--------------------------------8------8---------------------------------|
G|--------------------------------7h9--9---9-------------------------------|
D|------------------------------7------------------------------------------|
A|--7~~--7-9-10---9h10-9~--9-10--------------------------------------------|
E|-------------------------------------------------------------------------|

e|--14-15-17~~--15--------------------------------------------------------|
B|-----------------17~~~--------------------------------------------------|
G|------------------------------------------------------------------------|
D|------------------------------------------------------------------------|
A|------------------------------------------------------------------------|
E|------------------------------------------------------------------------|


| /  slide up
| \  slide down
| h  hammer-on
| p  pull-off
| ~  vibrato
| +  harmonic
| x  Mute note
===============================================================================

            
            
Suggest correction
Creating personal tab
Creating personal tab
You can edit any tab online and save it as your Personal.

You can edit, replace or remove any tab part or add personal notes – all changes will be seen only by you.

Personal tabs can be accessed anytime from any device, even offline.
Learn more »
Give kudos to tab author, rate the tab!
1 2 3 4 5
comments
print report bad tab
4 comments total. Showing first comments.
0 reply
glynsgoods 10 Dec 11, 2007 12:37 AM

good work R-DOG

0 reply
dont-eat-jesus 10 Jun 09, 2008 10:47 AM

for the Main/Chorus Riff it sounds to me more like this?

e|---------------------------------------------------------------|
B|-------------------------------3-------------------------------|
G|-------------------------------2--2----------------------------|
D|---------0------2-----2-0--0---0--2----------------------------|
A|-2--0h2-----0h2-----------2-------0----------------------------|
E|-0-------------------------------------------------------------|

and what are the power chords in the verses?

apart from that excellent :D

0 reply
soulflyV 138 Aug 29, 2008 09:05 PM

Errr, yeah you're right. I missed a 2 in there.

I haven't had much time to look over it again lately, but I'll give the chords a go soon.

guest
You may want to rate the tab now too:
select rating
Wanna post a correction for this tab? Suggest correction