Oops, an error
Loading. Please wait.
We have an official Girls In Black tab made by UG professional guitarists. Check out the tab »
×
16,841 views 15 this week
10 commentsread comments
1 2 3 4 5
x 10
add to favorites
×
Save as Personal and add changes to this tab that will be seen only by you. Learn more ›
×
You can save this tab as Personal to edit and correct it or add notes. All changes will be seen only by you. Learn more »
launch autoscroll
font size
0
reset
how to read this tab
guitar tuner
edit
Autoscroll
slow
fast
+/-
esc
set tempo
stop
Author
I generated this tab using Guitar Pro, so it's a little bit confusing, but you'll get it.

Duration Legend
---------------
W - whole
H - half
Q - quarter
E - 8th
S - 16th
T - 32nd
X - 64th
. - note dotted
|-n-|  - n-tuplets


Tablature Legend
----------------
L - tied note
x - dead note
h - hammer on
p - pull off
b - bend
br - bendRelease
/ -  slide into from below or out of upwards
\ -  slide into from above or out of downwards
~ - vibrato
tr - trill
TP - tremolo picking


Half Step *UP* tunning. It's f****** strange, but it's the only way to play this.


INTRO
      E  E  E  E  E  E  E  E     E  E  E  E  Q    Q
F ||--------------------------|------------------------|
C ||--------------------------|-------------------3----|
G#||--------------------------|-------------------2----|
D#||-----------2-----2-----2--|--L-----------2----0----|
A#||--2-----2--0-----0-----2--|--L--2-----2--0---------|
F ||--0--3--0--------------0--|--L--0--3--0------------|


  E  E  E  E  E  E  E  E     E  E  E  E  Q    Q       E  E  E  E  E  E  E  E
--------------------------|------------------------|--------------------------|
--------------------------|-------------------3----|--------------------------|
--------------------------|-------------------2----|--------------------------|
-----------2-----2-----2--|--L-----------2----0----|-----------2-----2-----2--|
--2-----2--0-----0-----2--|--L--2-----2--0---------|--2-----2--0-----0-----2--|
--0--3--0--------------0--|--L--0--3--0------------|--0--3--0--------------0--|


  E  E  E  E  Q    Q       E  E  E  E  E  E  E  E     E  E  E  E  Q    Q
------------------------|--------------------------|------------------------|
-------------------3----|--------------------------|-------------------3----|
-------------------2----|--------------------------|-------------------2----|
--L-----------2----0----|-----------2-----2-----2--|--L--2--------2----0----|
--L--2-----2--0---------|--2-----2--0-----0-----2--|--L--2-----2--0---------|
--L--0--3--0------------|--0--3--0--------------0--|--L--0--3--0------------|


VERSE GUITAR 1
    Q    E  H        E     H        E   E   Q        Q    E  H        E
|-----------------------|-------------------------|----------------------|
|-----------3--------L--|--L--------L---L---------|----------------------|
|*----------2--------L--|--L--------L---L---------|--2-------------------|
|*--2-------0--------L--|--L--------L---L---------|--2-------2--------L--|
|---2-------------------|-------------------------|--0-------2--------L--|
|---0-------------------|--------------(0)--3b----|----------0--------L--|

  H        E  E  E  E
-----------------------|
-----------------------|
-----------------------|
--L--------L-----------|
--L--------L-----------|
--L--------L--3--2--0--|


VERSE GUITAR 2
    Q    E  H        E     E  E  E  E  Q    Q        Q    E  H        E
|--------------------0--|--------0----------------|----------------------|
|-----------3--------L--|--L--3-----3-------------|----------------------|
|*----------2--------L--|--L-----------2----------|--2-------------------|
|*--2-------0--------L--|--------------L----------|--2-------2--------L--|
|---2-------------------|-------------------------|--0-------2--------L--|
|---0-------------------|-------------------3b----|----------0--------L--|

  H        E  E  E  E
-----------------------|
-----------------------|
-----------------------|
--L--------L-----------|
--L--------L-----------|
--L--------L--3--2--0--|


PRE-CHORUS
   Q.     Q.     Q       Q    Q.     E  E  E
|--3------------------|-----------------------|
|--3------------------|-----------------------|
|--0------2-----------|-----------------------|
|--0------2------2----|--L-----------2--0-----|
|---------0------2----|--L-----------------2--|
|----------------0----|--L--------------------|


  Q.     Q.     Q       Q    Q.     E  E  E     Q.     Q.     Q
--3------------------|-----------------------|--3------------------|
--3------------------|-----------------------|--3------------------|
--0------2-----------|-----------------------|--0------2-----------|
--0------2------2----|--L-----------2--0-----|--0------2------2----|
---------0------2----|--L-----------------2--|---------0------2----|
----------------0----|--L--------------------|----------------0----|


  Q    Q.     E  E  E     Q.     Q.     Q       W
-----------------------|--3------------------|-------------------|
-----------------------|--3-------------3----|--L----------------|
-----------------------|--0------2------2----|--L----------------|
--L-----------2--0-----|--0------2------0----|--L----------------|
--L-----------------2--|---------0-----------|-------------------|
--L--------------------|---------------------|-------------------|


CHORUS
  E  E  E  E  E  E  E  E     E  E  E  E  Q    Q       E  E  E  E  E  E  E  E
--------------------------|------------------------|--------------------------|
--------------------------|-------------------3----|--------------------------|
--------------------------|-------------------2----|--------------------------|
-----------2-----2-----2--|--L-----------2----0----|-----------2-----2-----2--|
--2-----2--0-----0-----2--|--L--2-----2--0---------|--2-----2--0-----0-----2--|
--0--3--0--------------0--|--L--0--3--0------------|--0--3--0--------------0--|


  E  E  E  E  Q    Q       E  E  E  E  E  E  E  E     E  E  E  E  Q    Q
------------------------|--------------------------|------------------------|
-------------------3----|--------------------------|-------------------3----|
-------------------2----|--------------------------|-------------------2----|
--L--2--------2----0----|-----------2-----2-----2--|--L-----------2----0----|
--L--2-----2--0---------|--2-----2--0-----0-----2--|--L--2-----2--0---------|
--L--0--3--0------------|--0--3--0--------------0--|--L--0--3--0------------|


  E  E  E  E  E  E  E  E     E  E  E  E  Q    Q
--------------------------|-------------------------|
--------------------------|-------------------3-----|
--------------------------|-------------------2----*|
-----------2-----2-----2--|--L--2--------2----0----*|
--2-----2--0-----0-----2--|--L--2-----2--0----------|
--0--3--0--------------0--|--L--0--3--0-------------|


POST-CHORUS
   Q.     Q.     Q
|---------3-----------|
|---------3-----------|
|---------0-----------|
|--2------0------2----|
|--2-------------2----|
|--0-------------0----|

  E  Q.     Q    Q        Q.     Q.     Q       E  Q.     Q    Q
-----------------------|---------3-----------|-----------------------|
-----------------------|---------3-----------|-----------------------|
-----2-----------------|---------0-----------|-----2-----------------|
--L--2------2----------|--2------0------2----|--L--2------2----------|
--L--0------2----------|--2-------------2----|--L--0------2----------|
--L---------0----3b----|--0-------------0----|--L---------0----3b----|


"SOLO"
    E   E   E   Q.      E   E
|------------------------------|
|------------------------------|
|--------------12--------------|
|--14--12------12------14--12--|
|----------14------------------|
|------------------------------|

   E    Q.        E     E    E   E      E   E   E   Q.      E   E
------------------------------------|------------------------------|
------------------------------------|------------------------------|
-------14--------14----12-----------|--------------12--------------|
------(14)------(14)--(12)--14--12--|--14--12------12------14--12--|
--14--------------------------------|----------14------------------|
------------------------------------|------------------------------|


   E    Q.        E     E    E   E      E   E   E   Q.      E   E
------------------------------------|------------------------------|
------------------------------------|------------------------------|
-------14--------14----12-----------|--------------12--------------|
------(14)------(14)--(12)--14--12--|--14--12------12------14--12--|
--14--------------------------------|----------14------------------|
------------------------------------|------------------------------|


   E    Q.        E     E    E   E      E   E   E   Q.      E    E
------------------------------------|---------------------------14--|
------------------------------------|----------------------17b------|
-------14--------14----12-----------|--------------12---------------|
------(14)------(14)--(12)--14--12--|--14--12------12---------------|
--14--------------------------------|----------14-------------------|
------------------------------------|-------------------------------|


   E   Q     E      Q     Q
------14----17--17g19~----L\----|
--17----------------------------|
--------------------------------|
--------------------------------|
--------------------------------|
--------------------------------|


Now just repeat in the correct order and it's done.

            
            
Suggest correction
Creating personal tab
Creating personal tab
You can edit any tab online and save it as your Personal.

You can edit, replace or remove any tab part or add personal notes – all changes will be seen only by you.

Personal tabs can be accessed anytime from any device, even offline.
Learn more »
comments
print report bad tab
10 comments total. Showing first comments.
0 reply
Mgkrcks 10 Feb 12, 2009 09:37 AM

sweet! great tab. finally

0 reply
Mgkrcks 10 Feb 12, 2009 09:45 AM

one small correction i have
INTRO
E E E E E E E E E E E E Q Q
F ||--------------------------|------------------------|
C ||--------------------------|-------------------3----|
G#||--------------------------|-------------------2----|
D#||-----------2-----2-----2--|--L-----------2----0----|
A#||--2-----2--0-----0-----2--|--L--2-----2--0---------|
F ||--0--3--0--------------0--|--L--0--3--0------------|
---------------------^--this-note-----------------------
INTRO
E E E E E E E E E E E E Q Q
F ||--------------------------|------------------------|
C ||--------------------------|-------------------3----|
G#||-----------------2--------|-------------------2----|
D#||-----------2-----0-----2--|--L-----------2----0----|
A#||--2-----2--0-----------2--|--L--2-----2--0---------|
F ||--0--3--0--------------0--|--L--0--3--0------------|
---------------------^----should-be-a-D,-or-D#-for-this-tuning
and this applies for every time this part comes around

0 reply
Mgkrcks 10 Feb 12, 2009 09:45 AM

listen closely and you can tell

guest
You may want to rate the tab now too:
select rating
Wanna post a correction for this tab? Suggest correction