Oops, an error
Loading. Please wait.

Heartbreaker bass

version 1
version 1

Whole song

Interactive

2,802 views 6 this week
4 commentsread comments
1 2 3 4 5
2 more votes to show rating
add to favorites
×
Save as Personal and add changes to this tab that will be seen only by you. Learn more ›
×
You can save this tab as Personal to edit and correct it or add notes. All changes will be seen only by you. Learn more »
launch autoscroll
font size
0
reset
guitar tuner
edit
Autoscroll
slow
fast
+/-
esc
set tempo
stop
Author
Difficulty
Airbourne-Heartbreaker
Runnin' Wild (2007)
Transcribed by: DragonBass88
Email: dragens_hule@hotmail.com

Standard Tuning

Intro:

  (0:00)                                                                 
G||-----------------|-----------------|-----------------|-----------------|
D||-----------------|-----------------|-----------------|-----------------|
A||-----------------|-----------------|-----------------|-----------------|
E||-5--5------------|-5--5------------|-5--5------------|-5--5---17-17-17-|

   
G|-----------------|-----------------|-----------------|-----------------|
D|-----------------|-----------------|-----------------|-----------------|
A|-----------------|-----------------|-----------------|-----------------|
E|-17-17-17-17-17\-|-5-5-5-5-5-5-5-5-|-5-5-5-5-5-5-5-5-|-5-5-5-5-5-5-5-5-|

                                                            
G|-----------------|-----------------|-----------------|-----------------|
D|-----------------|-----------------|-----------------|-----------------|
A|-----------------|-----------------|-----------------|-----------------|
E|-5-5-5-5-5-5-5-5-|-5-5-5-5-5-5-5-5-|-5-5-5-5-5-5-5-5-|-5-5-5-5-5-5-5-5-|


G|-----------------|
D|-----------------|
A|-----------------|
E|-5-5-5-5-5-5-5-5-|

Verse 1:

  (0:25)
G|-----------------|-----------------|-----------------|-----------------|
D|-----------------|-----------------|-----------------|-----------------|
A|-----------------|-----------------|-----------------|-----------------|
E|-5-5-5-5-5-5-5-5-|-5-5-5-5-5-5-5-5-|-5-5-5-5-5-5-5-5-|-5-5-5-5-5-5-5-5-|
				    She's so hot, she's so fine...
   
G|-----------------|-----------------|-----------------|-----------------|
D|-----------------|-----------------|-----------------|-----------------|
A|-----------------|-----------------|-----------------|-----------------|
E|-5-5-5-5-5-5-5-5-|-5-5-5-5-5-5-5-5-|-5-5-5-5-5-5-5-5-|-5-5-5-5-5-5-5-5-|

   
G|-----------------|-----------------|-----------------|-----------------|
D|-----------------|-----------------|-----------------|-----------------|
A|-----------------|-----------------|-----------------|-----------------|
E|-5-5-5-5-5-5-5-5-|-5-5-5-5-5-5-5-5-|-5-5-5-5-5-5-5-5-|-5-5-5-5-5-5-5-5-|

   
G|-----------------|-----------------|
D|-----------------|-----------------|
A|-----------------|-----------------|
E|-5-5-5-5-5-5-5-5-|-5-5-5-5-5-5-5-5-|
				
Pre Chorus 1:

  (0:47)                                                                 
G|-----------------|-----------------|-----------------|-----------------|
D|-----------------|-----------------|-----------------|-----------------|
A|--------------5--|-5-5-5-5-5-------|-----------------|-----------------|
E|-3--3-3-3-3-3----|------------5--5-|-5-5-5-5-5-17-17-|-17-17-17-17-17\\|
Oh yeah she's my pill...she's my fix

Chorus 1:
  (0:54)                                                           
G|-----------------|-----------------|-----------------|-----------------|
D|-----------------|-----------------|-----------------|-----------------|
A|-----------------|-----------------|-5-5-5-3-3-3-----|-----------------|
E|-5-5-5-0-0-0-3-3-|-3-3-3-3-3-3-3-3-|-------------5-5-|-5-5-5-5-5-5-5-5-|
   Give me one more night...
                                      
G|-----------------|-----------------|-----------------|-----------------|
D|-----------------|-----------------|-----------------|-----------------|
A|-----------------|-----------------|-5-5-5-3-3-3-----|-----------------|
E|-5-5-5-0-0-0-3-3-|-3-3-3-3-3-3-3-3-|-------------5-5-|-5-5-5-5-5-5-5-5-|


G|-----------------|-----------------|-----------------|-----------------|
D|-----------------|-----------------|-----------------|-----------------|
A|-----------------|-----------------|-5-5-5-3-3-3-----|-----------------|
E|-5-5-5-0-0-0-3-3-|-3-3-3-3-3-3-3-3-|-------------5-5-|-5-5-5-5-5-5-5-5-|

                                      
G|-----------------|-----------------|-----------------|-----------------|
D|-----------------|-----------------|-----------------|-----------------|
A|-----------------|-----------------|-5-5-5-3-3-3-5-5-|-5-5-5-5-5-5-5-5-|
E|-5-5-5-0-0-0-3-3-|-3-3-3-3-3-3-3-3-|-----------------|-----------------|

Pre Verse 1:

  (1:19)
G|-----------------|-----------------|-----------------|-----------------|
D|-----------------|-----------------|-----------------|-----------------|
A|-----------------|-----------------|-----------------|-----------------|
E|-5-5-5-5-5-5-5-5-|-5-5-5-5-5-5-5-5-|-5-5-5-5-5-5-5-5-|-5-5-5-5-5-5-5-5-|

   
G|-----------------|-----------------|-----------------|-----------------|
D|-----------------|-----------------|-----------------|-----------------|
A|-----------------|-----------------|-----------------|-----------------|
E|-5-5-5-5-5-5-5-5-|-5-5-5-5-5-5-5-5-|-5-5-5-5-5-5-5-5-|-5-5-5-5-5-5-5-5-|

Verse 2:

  (1:32) 
G|-----------------|-----------------|-----------------|-----------------|
D|-----------------|-----------------|-----------------|-----------------|
A|-----------------|-----------------|-----------------|-----------------|
E|-5-5-5-5-5-5-5-5-|-5-5-5-5-5-5-5-5-|-5-5-5-5-5-5-5-5-|-5-5-5-5-5-5-5-5-|
                                      Lone walk, long stroll...
   
G|-----------------|-----------------|-----------------|-----------------|
D|-----------------|-----------------|-----------------|-----------------|
A|-----------------|-----------------|-----------------|-----------------|
E|-5-5-5-5-5-5-5-5-|-5-5-5-5-5-5-5-5-|-5-5-5-5-5-5-5-5-|-5-5-5-5-5-5-5-5-|

   
G|-----------------|-----------------|-----------------|-----------------|
D|-----------------|-----------------|-----------------|-----------------|
A|-----------------|-----------------|-----------------|-----------------|
E|-5-5-5-5-5-5-5-5-|-5-5-5-5-5-5-5-5-|-5-5-5-5-5-5-5-5-|-5-5-5-5-5-5-5-5-|

   
G|-----------------|-----------------|
D|-----------------|-----------------|
A|-----------------|-----------------|
E|-5-5-5-5-5-5-5-5-|-5-5-5-5-5-5-5-5-|

Pre Chorus 2:

  (1:54)                                                          
G|-----------------|-----------------|-----------------|-----------------|
D|-----------------|-----------------|-----------------|-----------------|
A|--------------5--|-5-5-5-5-5-------|-----------------|-----------------|
E|-3--3-3-3-3-3----|-----------5--5--|-5-5-5-5-5/17-17-|-17-17-17-17-17\\|
N' she said what's been taking you so long

Chorus 2

  (2:01)                                                          
G|-----------------|-----------------|-----------------|-----------------|
D|-----------------|-----------------|-----------------|-----------------|
A|-----------------|-----------------|-5-5-5-3-3-3-----|-----------------|
E|-5-5-5-0-0-0-3-3-|-3-3-3-3-3-3-3-3-|-------------5-5-|-5-5-5-5-5-5-5-5-|
  Give me one more night...

G|-----------------|-----------------|-----------------|-----------------|
D|-----------------|-----------------|-----------------|-----------------|
A|-----------------|-----------------|-5-5-5-3-3-3-----|-----------------|
E|-5-5-5-0-0-0-3-3-|-3-3-3-3-3-3-3-3-|-------------5-5-|-5-5-5-5-5-5-5-5-|


G|-----------------|-----------------|-----------------|-----------------|
D|-----------------|-----------------|-----------------|-----------------|
A|-----------------|-----------------|-5-5-5-3-3-3-----|-----------------|
E|-5-5-5-0-0-0-3-3-|-3-3-3-3-3-3-3-3-|-------------5-5-|-5-5-5-5-5-5-5-5-|


G|-----------------|-----------------|-----------------|-----------------|
D|-----------------|-----------------|-----------------|-----------------|
A|-----------------|-----------------|-5-5-5-3-3-3-5-5-|-5-5-5-5-5-5-5-5-|
E|-5-5-5-0-0-0-3-3-|-3-3-3-3-3-3-3-3-|-----------------|-----------------|

Interlude:

  (2:26)
G|-----------------|-----------------|-----------------|-----------------|
D|-----------------|-----------------|-----------------|-----------------|
A|-7—--7~----------|-7---7-----------|--7---7---7---7--|--7---7---7---7--|
E|-----------------|-----------------|-----------------|-----------------|


G|-----------------|-----------------|
D|-----------------|-----------------|
A|-7-7-7-7-7-7-7-7-|-5-5-5-5-5-5-5-5-|
E|-----------------|-----------------|

Guitar Solo:

  (2:39)                                                    
G|-----------------|-----------------|-----------------|-----------------|
D|-----------------|-----------------|-----------------|-----------------|
A|-----------------|-----------------|-----------------|-----------------|
E|-5-5-5-5-5-5-5-5-|-5-5-5-5-5-5-5-5-|-5-5-5-5-5-5-5-5-|-5-5-5-5-5-5-5-5-|

                                                    
G|-----------------|-----------------|-----------------|-----------------|
D|-----------------|-----------------|-----------------|-----------------|
A|-----------------|-----------------|-----------------|-----------------|
E|-5-5-5-5-5-5-5-5-|-5-5-5-5-5-5-5-5-|-5-5-5-5-5-5-5-5-|-5-5-5-5-5-5-5-5-|

                            
G|-----------------|-----------------|-----------------|-----------------|
D|-----------------|-----------------|-----------------|-----------------|
A|-----------------|-----------------|-----------------|-----------------|
E|-5-5-5-5-5-5-5-5-|-5-5-5-5-5-5-5-5-|-5-5-5-5-5-5-5-5-|-5-5-5-5-5-5-5-5-|


G|-----------------|-----------------|
D|-----------------|-----------------|
A|-----------------|-----------------|
E|-5-5-5-5-5-5-5-5-|-5-5-5-5-5-5-5-5-|

Pre Chorus 3:

  (3:01)
G|-----------------|-----------------|-----------------|-----------------|
D|-----------------|-----------------|-----------------|-----------------|
A|--------------5--|-5-5-5-5-5-------|-----------------|-----------------|
E|-3--3-3-3-3-3----|-----------5--5--|-5-5-5-5-5/17-17-|-17-17-17-17-17\\|

Chorus 3:

  (3:08)                                                         
G|-----------------|-----------------|-----------------|-----------------|
D|-----------------|-----------------|-----------------|-----------------| 
A|-----------------|-----------------|-5-5-5-3-3-3-----|-----------------|
E|-5-5-5-0-0-0-3-3-|-3-3-3-3-3-3-3-3-|-------------5-5-|-5-5-5-5-5-5-5-5-|
  
                                                       
G|-----------------|-----------------|-----------------|-----------------|
D|-----------------|-----------------|-----------------|-----------------|
A|-----------------|-----------------|-5-5-5-3-3-3-----|-----------------|
E|-5-5-5-0-0-0-3-3-|-3-3-3-3-3-3-3-3-|-------------5-5-|-5-5-5-5-5-5-5-5-|
 
                                                  
G|-----------------|-----------------|-----------------|-----------------|
D|-----------------|-----------------|-----------------|-----------------|
A|-----------------|-----------------|-5-5-5-3-3-3-----|-----------------|
E|-5-5-5-0-0-0-3-3-|-3-3-3-3-3-3-3-3-|-------------5-5-|-5-5-5-5-5-5-5-5-|


G|-----------------|-----------------|-----------------|-----------------|
D|-----------------|-----------------|-----------------|-----------------|
A|-----------------|-----------------|-5-5-5-3-3-3-5-5-|-5-5-5-5-5-5-5-5-|
E|-5-5-5-0-0-0-3-3-|-3-3-3-3-3-3-3-3-|-----------------|-----------------|

Outro:

  (3:33)
G|-----------------|-----------------|-----------------|-----------------|
D|-----------------|-----------------|-----------------|-----------------|
A|-----------------|-----------------|-----------------|-----------------|
E|-5-5-5-5-5-5-5-5-|-5-5-5-5-5-5-5-5-|-5-5-5-5-5-5-5-5-|-5-5-5-5-5-5-5-5-|

   
G|-----------------|-----------------|-----------------|-----------------|
D|-----------------|-----------------|-----------------|-----------------|
A|-----------------|-----------------|-----------------|-5--3------------|
E|-5-5-5-5-5-5-5-5-|-5-5-5-5-5-5-5-5-|--5---5-------3--|------5~---------|

       
G|-----------------||
D|-----------------||
A|-----------------||
E|-----------------||


    I’m sure this is correct. But let me now if it’s not :)

            
            
Suggest correction
Creating personal tab
Creating personal tab
You can edit any tab online and save it as your Personal.

You can edit, replace or remove any tab part or add personal notes – all changes will be seen only by you.

Personal tabs can be accessed anytime from any device, even offline.
Learn more »
Give kudos to tab author, rate the tab!
1 2 3 4 5
comments
print report bad tab
4 comments total. Showing first comments.
0 reply
playinbass1432 1,442 Nov 28, 2008 04:33 AM

LMFAO! Looks like I inspired you a bit, huh? LOL.

Good job!

0 reply
Dback139 306 Jan 11, 2010 04:04 PM

Well done, 5 stars.

0 reply
Dback139 306 Apr 13, 2010 06:46 PM

After getting high on this song I've noticed that the outro should be played an octave up. That and sometimes on the slide down from E17, a couple notes are played. Nothing major, this is still a sweet-ass tab and I stand by my 5 star rating.

guest
You may want to rate the tab now too:
select rating
Wanna post a correction for this tab? Suggest correction