Oops, an error
Loading. Please wait.
We have an official Runnin Wild tab made by UG professional guitarists. Check out the tab »
×
24,999 views 27 this week
8 commentsread comments
1 2 3 4 5
x 10
add to favorites
×
Save as Personal and add changes to this tab that will be seen only by you. Learn more ›
×
You can save this tab as Personal to edit and correct it or add notes. All changes will be seen only by you. Learn more »
launch autoscroll
font size
0
reset
guitar tuner
backing track
0:00
0:00
edit
Autoscroll
slow
fast
+/-
esc
set tempo
stop
Airbourne-Runnin' Wild
Runnin' Wild (2007)
Transcribed by: playinbass1432
Email: playinbass1432@hotmail.com

Tune all strings up 1/2 step
F,A#,D#,G#

Intro: (0:17)

     F
G#|-----------------|-----------------|-----------------|-----------------|
D#|-----------------|-----------------|-----------------|-----------------|
A#|-----------------|-----------------|-----------------|-----------------|
F |-0-0-0-0-0-0-0-0-|-0-0-0-0-0-0-0-0-|-0-0-0-0-0-0-0-0-|-0-0-0-0-0-0-0-0-|

     F
G#|-----------------|-----------------|-----------------|-----------------|
D#|-----------------|-----------------|-----------------|-----------------|
A#|-----------------|-----------------|-----------------|-----------------|
F |-0-0-0-0-0-0-0-0-|-0-0-0-0-0-0-0-0-|-0-0-0-0-0-0-0-0-|-0-0-0-0-0-0-0-0-|

Verse 1: 

     F
G#|-----------------|-----------------|-----------------|-----------------|
D#|-----------------|-----------------|-----------------|-----------------|
A#|-----------------|-----------------|-----------------|-----------------|
F |-0-0-0-0-0-0-0-0-|-0-0-0-0-0-0-0-0-|-0-0-0-0-0-0-0-0-|-0-0-0-0-0-0-0-0-|

     F
G#|-----------------|-----------------|-----------------|-----------------|
D#|-----------------|-----------------|-----------------|-----------------|
A#|-----------------|-----------------|-----------------|-----------------|
F |-0-0-0-0-0-0-0-0-|-0-0-0-0-0-0-0-0-|-0-0-0-0-0-0-0-0-|-0-0-0-0-0-0-0-0-|

Pre Chorus 1:

    D#                A#                F
G#|-----------------|-----------------|-----------------|-----------------|
D#|-----------------|-----------------|-----------------|-----------------|
A#|-5-5-5-5-5-5-5-5-|-----------------|-----------------|-----------------|
F |-----------------|-5-5-5-5-5-5-5-5-|-0-0-0-0-0-0-0-0-|-0-0-0-0-0-0-0-0-|

    D#                A#                C
G#|-----------------|-----------------|-----------------|-----------------|
D#|-----------------|-----------------|-----------------|-----------------|
A#|-5-5-5-5-5-5-5-5-|-----------------|-----------------|-----------------|
F |-----------------|-5-5-5-5-5-5-5-5-|-7-7-7-7-7-7-7-7-|-7-7-7-7-7-7-7-7-|

Chorus 1:

    F                                   D#
G#|-----------------|-----------------|-----------------|-----------------|
D#|-----------------|-----------------|-----------------|-----------------|
A#|-7-7-7-7-7-7-7-7-|-7-7-7-7-7-7-7-7-|-5-5-5-5-5-5-5-5-|-5-5-5-5-5-5-5-5-|
F |-----------------|-----------------|-----------------|-----------------|

    F                                   D#                  
G#|-----------------|-----------------|-----------------|-----------------|
D#|-----------------|-----------------|-----------------|-----------------|
A#|-7-7-7-7-7-7-7-7-|-7-7-7-7-7-7-7-7-|-5-5-5-5-5-5-5-5-|-5-5-4-2---------|
F |-----------------|-----------------|-----------------|-----------3-2-0-|

Verse 2: 

     F
G#|-----------------|-----------------|-----------------|-----------------|
D#|-----------------|-----------------|-----------------|-----------------|
A#|-----------------|-----------------|-----------------|-----------------|
F |-0-0-0-0-0-0-0-0-|-0-0-0-0-0-0-0-0-|-0-0-0-0-0-0-0-0-|-0-0-0-0-0-0-0-0-|

     F
G#|-----------------|-----------------|-----------------|-----------------|
D#|-----------------|-----------------|-----------------|-----------------|
A#|-----------------|-----------------|-----------------|-----------------|
F |-0-0-0-0-0-0-0-0-|-0-0-0-0-0-0-0-0-|-0-0-0-0-0-0-0-0-|-0-0-0-0-0-0-0-0-|

Pre Chorus 2:

    D#                A#                F
G#|-----------------|-----------------|-----------------|-----------------|
D#|-----------------|-----------------|-----------------|-----------------|
A#|-5-5-5-5-5-5-5-5-|-----------------|-----------------|-----------------|
F |-----------------|-5-5-5-5-5-5-5-5-|-0-0-0-0-0-0-0-0-|-0-0-0-0-0-0-0-0-|

    D#                A#                C
G#|-----------------|-----------------|-----------------|-----------------|
D#|-----------------|-----------------|-----------------|-----------------|
A#|-5-5-5-5-5-5-5-5-|-----------------|-----------------|-----------------|
F |-----------------|-5-5-5-5-5-5-5-5-|-7-7-7-7-7-7-7-7-|-7-7-7-7-7-7-7-7-|

Chorus 2:

    F                                   D#
G#|-----------------|-----------------|-----------------|-----------------|
D#|-----------------|-----------------|-----------------|-----------------|
A#|-7-7-7-7-7-7-7-7-|-7-7-7-7-7-7-7-7-|-5-5-5-5-5-5-5-5-|-5-5-5-5-5-5-5-5-|
F |-----------------|-----------------|-----------------|-----------------|

    F                                   D#
G#|-----------------|-----------------|-----------------|-----------------|
D#|-----------------|-----------------|-----------------|-----------------|
A#|-7-7-7-7-7-7-7-7-|-7-7-7-7-7-7-7-7-|-5-5-5-5-5-5-5-5-|-5-5-5-5-5-5-5-5-|
F |-----------------|-----------------|-----------------|-----------------|

    F                                   D#
G#|-----------------|-----------------|-----------------|-----------------|
D#|-----------------|-----------------|-----------------|-----------------|
A#|-7-7-7-7-7-7-7-7-|-7-7-7-7-7-7-7-7-|-5-5-5-5-5-5-5-5-|-5-5-5-5-5-5-5-5-|
F |-----------------|-----------------|-----------------|-----------------|

    F                                   G#                A# 
G#|-----------------|-----------------|-----------------|-----------------|
D#|-----------------|-----------------|-5-5-5-5-5-5-5-5-|-7-7-7-7-7-7-7-7-|
A#|-7-7-7-7-7-7-7-7-|-7-7-7-7-7-7-7-7-|-----------------|-----------------|
F |-----------------|-----------------|-----------------|-----------------|

Guitar Solo: 

     F
G#|-----------------|-----------------|-----------------|-----------------|
D#|-----------------|-----------------|-----------------|-----------------|
A#|-----------------|-----------------|-----------------|-----------------|
F |-0-0-0-0-0-0-0-0-|-0-0-0-0-0-0-0-0-|-0-0-0-0-0-0-0-0-|-0-0-0-0-0-0-0-0-|

     F
G#|-----------------|-----------------|-----------------|-----------------|
D#|-----------------|-----------------|-----------------|-----------------|
A#|-----------------|-----------------|-----------------|-----------------|
F |-0-0-0-0-0-0-0-0-|-0-0-0-0-0-0-0-0-|-0-0-0-0-0-0-0-0-|-0-0-0-0-0-0-0-0-|

Bridge: 

     F
G#|-----------------|-----------------|-----------------|-----------------|
D#|-----------------|-----------------|-----------------|-----------------|
A#|-----------------|-----------------|-----------------|-----------------|
F |-0-0-0-0-0-0-0-0-|-0-0-0-0-0-0-0-0-|-0-0-0-0-0-0-0-0-|-0-0-0-0-0-0-0-0-|

     F
G#|-----------------|-----------------|-----------------|-----------------|
D#|-----------------|-----------------|-----------------|-----------------|
A#|-----------------|-----------------|-----------------|-----------------|
F |-0-0-0-0-0-0-0-0-|-0-0-0-0-0-0-0-0-|-0-0-0-0-0-0-0-0-|-0-0-0-0-0-0-0-0-|

     F
G#|-----------------|-----------------|-----------------|-----------------|
D#|-----------------|-----------------|-----------------|-----------------|
A#|-----------------|-----------------|-----------------|-----------------|
F |-0-0-0-0-0-0-0-0-|-0-0-0-0-0-0-0-0-|-0-0-0-0-0-0-0-0-|-0-0-0-0-0-0-0-0-|

     F
G#|-----------------|-----------------|-----------------|-----------------|
D#|-----------------|-----------------|-----------------|-----------------|
A#|-----------------|-----------------|-----------------|-----------------|
F |-0-0-0-0-0-0-0-0-|-0-0-0-0-0-0-0-0-|-0-0-0-0-0-0-0-0-|-0-0-0-0-0-0-0-0-|

    F
G#|-----------------|-----------------|-----------------|-----------------|
D#|-----------------|-----------------|-----------------|-----------------|
A#|-----------------|-----------------|-----------------|-----------------|
F |-0-0-0-0-0-0-0-0-|-0-0-0-0-0-0-0-0-|-0---------------|-----------------|

Pre Chorus 3:

    D#                A#                F
G#|-----------------|-----------------|-----------------|-----------------|
D#|-----------------|-----------------|-----------------|-----------------|
A#|-5-5-5-5-5-5-5-5-|-----------------|-----------------|-----------------|
F |-----------------|-5-5-5-5-5-5-5-5-|-0-0-0-0-0-0-0-0-|-0-0-0-0-0-0-0-0-|

    D#                A#                C
G#|-----------------|-----------------|-----------------|-----------------|
D#|-----------------|-----------------|-----------------|-----------------|
A#|-5-5-5-5-5-5-5-5-|-----------------|-----------------|-----------------|
F |-----------------|-5-5-5-5-5-5-5-5-|-7-7-7-7-7-7-7-7-|-7-7-7-7-7-7-7-7-|

Chorus 3:

    F                                   D#
G#|-----------------|-----------------|-----------------|-----------------|
D#|-----------------|-----------------|-----------------|-----------------|
A#|-7-7-7-7-7-7-7-7-|-7-7-7-7-7-7-7-7-|-5-5-5-5-5-5-5-5-|-5-5-5-5-5-5-5-5-|
F |-----------------|-----------------|-----------------|-----------------|

    F                                   D#
G#|-----------------|-----------------|-----------------|-----------------|
D#|-----------------|-----------------|-----------------|-----------------|
A#|-7-7-7-7-7-7-7-7-|-7-7-7-7-7-7-7-7-|-5-5-5-5-5-5-5-5-|-5-5-5-5-5-5-5-5-|
F |-----------------|-----------------|-----------------|-----------------|

    F                                   D#
G#|-----------------|-----------------|-----------------|-----------------|
D#|-----------------|-----------------|-----------------|-----------------|
A#|-7-7-7-7-7-7-7-7-|-7-7-7-7-7-7-7-7-|-5-5-5-5-5-5-5-5-|-5-5-5-5-5-5-5-5-|
F |-----------------|-----------------|-----------------|-----------------|

    F                                   G#                A# 
G#|-----------------|-----------------|-----------------|-----------------|
D#|-----------------|-----------------|-5-5-5-5-5-5-5-5-|-7-7-7-7-7-7-7-7-|
A#|-7-7-7-7-7-7-7-7-|-7-7-7-7-7-7-7-7-|-----------------|-----------------|
F |-----------------|-----------------|-----------------|-----------------|

    F                                   D#
G#|-----------------|-----------------|-----------------|-----------------|
D#|-----------------|-----------------|-----------------|-----------------|
A#|-7-7-7-7-7-7-7-7-|-7-7-7-7-7-7-7-7-|-5-5-5-5-5-5-5-5-|-5-5-5-5-5-5-5-5-|
F |-----------------|-----------------|-----------------|-----------------|

    F                                   G                 A 
G#|-----------------|-----------------|-----------------|-----------------|
D#|-----------------|-----------------|-5-5-5-5-5-5-5-5-|-7-7-7-7-7-7-7-7-|
A#|-7-7-7-7-7-7-7-7-|-7-7-7-7-7-7-7-7-|-----------------|-----------------|
F |-----------------|-----------------|-----------------|-----------------|

Outro:


     F
G#|-----------------|-----------------|-----------------|-----------------|
D#|-----------------|-----------------|-----------------|-----------------|
A#|-----------------|-----------------|-----------------|-----------------|
F |-0-0-0-0-0-0-0-0-|-0-0-0-0-0-0-0-0-|-0-0-0-0-0-0-0-0-|-0-0-0-0-0-0-0-0-|

     F                                              D     G   A
G#|-----------------|-----------------|-----------------|-----------------|
D#|-----------------|-----------------|-----------------|-----------------|
A#|-----------------|-----------------|-------------5---|-----------------|
F |-0-0-0-0-0-0-0-0-|-0-0-0-0-0-0-0-0-|-0---0---0-------|-3---5-----------|

              F
G#|-----------------|
D#|-----------------|
A#|-----------------|
F |-----------1-1---|

            
            
Suggest correction
Creating personal tab
Creating personal tab
You can edit any tab online and save it as your Personal.

You can edit, replace or remove any tab part or add personal notes – all changes will be seen only by you.

Personal tabs can be accessed anytime from any device, even offline.
Learn more »
comments
print report bad tab
8 comments total. Showing first comments.
0 reply
aig91 4,357 Feb 04, 2008 09:57 AM

I love how organized and detailed your tabs are. Keep it up man ;)

+2 reply
ibanez87 311 Feb 04, 2008 01:44 PM

yeah same here, correcting tuning and every thing! 5 stars

-1 reply
lilwelshrocker 324 Mar 15, 2008 02:20 PM

yer good tab and tuning but i think the verse goes something like this:
G#|---------------|
D#|---------------|
A#|---------------|
F |00 00 5H3 00 00|

something like that anyways. fits the tune better.

guest
You may want to rate the tab now too:
select rating
Wanna post a correction for this tab? Suggest correction