Oops, an error
Loading. Please wait.
We have an official Too Much Too Young Too Fast tab made by UG professional guitarists. Check out the tab »
×
10,928 views 1 this week
4 commentsread comments
1 2 3 4 5
x 5
add to favorites
×
Save as Personal and add changes to this tab that will be seen only by you. Learn more ›
×
You can save this tab as Personal to edit and correct it or add notes. All changes will be seen only by you. Learn more »
launch autoscroll
font size
0
reset
how to read this tab
guitar tuner
backing track
0:00
0:00
edit
Autoscroll
slow
fast
+/-
esc
set tempo
stop
Tabber: Lynn ;)
Date: 07/20/08



E|--------------------------------3---3---2---2-----------------|
B|--10---10---8---8---8---8---2---0---0---3---3-----------------|  
G|--9----9----7---7---7---7---2---0---0---2---2----------2------| X2
D|--7----7----5---5---4---4---2---0---0---0---0----------2------|
A|--0----0----0---0---0---0---0---2---2------------------0------|
E|--------------------------------3---3----------2---3----------|


E|---------------------------------3---------------3------------|
B|---------------------------------3---3-----------3---3--------|
G|--2--2--2--2--2--2--2--2--2--2---0---2---2---2---0---2---2--2-|
D|--2--2--2--2--2--2--2--2--2--2---0---0---2---2---0---0---2--2-| X4
A|--0--0--0--0--0--0--0--0--0--0-----------0---0-----------0--0-|
E|---------------------------------3---------------3------------|


thats all i know...




            
            
Suggest correction
Creating personal tab
Creating personal tab
You can edit any tab online and save it as your Personal.

You can edit, replace or remove any tab part or add personal notes – all changes will be seen only by you.

Personal tabs can be accessed anytime from any device, even offline.
Learn more »
comments
print report bad tab
4 comments total. Showing first comments.
0 reply
DrNinja 31 Aug 09, 2008 05:21 AM

This awesome! I can't believe no one has posted here. Amazingly accurate.

0 reply
DrNinja 31 Aug 09, 2008 11:32 AM

the first chord needs to be played four times.

0 reply
Edby 20 Feb 18, 2009 11:01 AM

nobodys posted this because its 'airbourne' not 'airborne'

guest
Wanna post a correction for this tab? Suggest correction