Oops, an error
Loading. Please wait.

When The Girl Gets Hot tab

version 1
version 1

Whole song

3,661 views 1 this week
1 commentread comment
1 2 3 4 5
x 5
add to favorites
×
Save as Personal and add changes to this tab that will be seen only by you. Learn more ›
×
You can save this tab as Personal to edit and correct it or add notes. All changes will be seen only by you. Learn more »
launch autoscroll
font size
0
reset
how to read this tab
guitar tuner
edit
Autoscroll
slow
fast
+/-
esc
set tempo
stop
Hello, this is my first tab, so some of the parts might be wrong. Also, don't be
confused by the X's and palm muted 0's, 
this is just the way I feel it should be played, 
you don't have to play it exactly like me.

Tabbed by: Lazzle22

The Tuning is: A Half Step Down

• = Palm Mute

INTRO (00:00)
                             x8
e|-------------------------|
B|--10--7-----------7------|
G|---------9-----9---------|  The 8th time, don't hold down the last note.
D|------------9--------9~--|
A|-------------------------|
E|-------------------------|

                                                     x4
e|-------------------------|-----------------------|
B|--10--7-----------7------|-----------------------|
G|---------9-----9---------|-------8-----9-----11--|
D|------------9--------9~--|----9-----9-----9------|
A|-------------------------|-----------------------|
E|-------------------------|-----------------------|

VERSE (00:38)
                                x4
e|------------------------------|-------------------------|
B|------------------------------|-------------------------|
G|-4-x-2-x-4--------2-----------|-------2-------2-----2---|
D|-4-x-2-x-4----2-x-2-x-2-------|---2-x-2-x-2-x-2-x-2-2---| <- 4th time
A|-2-x-0-x-2----2-x-0-x-2-------|---2-x-0-x-2-x-0-x-2-0---|
E|--------------0-x---x-0-------|---0-x---x-0-x---x-0-----|

You can change the x's with palm muted 0's, that's what I do.

BRIDGE (01:03)
                                                x4
e|---------------------|-----------------------|
B|-------3-3-----------|-----------------------|
G|-4-----2-2--2--------|-----2--2--------------|
D|-4-----0-0--2----2---|-----2--2---2----------|
A|-2-0--------0-0--2---|-----0--0---2----------|
E|-----------------0---|--0---------0----------|
     •         •          •

   4th time play this
e|----------------------|-----------------------|
B|------3-3-------------|-----------------------|
G|-4----2-2--2----------|-----------------------|
D|-4----0-0--2----2~----|--2~----2--2--2--2--2--|
A|-2-0-------0-0--2~----|--2~----2--2--2--2--2--|
E|----------------0~----|--0~----0--0--0--0--0--|
     •         •
CHORUS (01:20)
                                                    x4
e|-------------------------|-----------------------|
B|--10--7-----------7------|-----------------------|
G|---------9-----9---------|-------8-----9-----11--|
D|------------9--------9~--|----9-----9-----9------|
A|-------------------------|-----------------------|
E|-------------------------|-----------------------|

VERSE  (01:32)
BRIDGE (01:57)

CHORUS (02:13)
                                                    x4
e|-------------------------|-----------------------|
B|--10--7-----------7------|-----------------------|
G|---------9-----9---------|-------8-----9-----11--|
D|------------9--------9~--|----9-----9-----9------|
A|-------------------------|-----------------------|
E|-------------------------|-----------------------|

CHORUS 2 (02:25)


                                                    x2
e|-7-7---0-0---7-----------|--0-0---5-5---0--------|
B|-0-0---0-0---0-----------|--0-0---0-0---0--------|
G|-------------------------|-----------------------|
D|-------------------------|-----------------------|
A|-------------------------|-----------------------|
E|-------------------------|-----------------------|

2nd Time you play this

e|-0-0--5-5--0-0--5-5--0--5----|
B|-0-0--0-0--0-0--0-0--0--0----|
G|-----------------------------|
D|-----------------------------|
A|-----------------------------|
E|-----------------------------|

SOLO   (02:38) (Rhythm plays the BRIDGE riff here)
CHORUS (02:54)

CHORUS 3 (03:19)

Here you simply play Chorus 2, but with more strokes


CHORUS 4 (03:30)  


e|-2-2-2-0-0-0-2-2-2-2-2-2-2-2-0-0-0-5-5-5-0-0-0-0-0-0-0-0-------------------|
B|-0-0-0-0-0-0-0-0-0-0-0-0-0-0-0-0-0-0-0-0-0-0-0-0-0-0-0-0-------------------|
G|---------------------------------------------------------------------------|
D|---------------------------------------------------------------------------|
A|---------------------------------------------------------------------------|
E|---------------------------------------------------------------------------|

e|-14-14-14-12-12-12-14-14-14-14-14-14-14-14-12-12-12-17-17-17-12-12-12-12-12-12-12-12-|
B|-0--0--0--0--0--0--0--0--0--0--0--0--0--0--0--0--0--0--0--0--0--0--0--0--0--0--0--0--|
G|-------------------------------------------------------------------------------------|
D|-------------------------------------------------------------------------------------|
A|-------------------------------------------------------------------------------------|
E|-------------------------------------------------------------------------------------|

OUTRO (03:40)

e|--0-0--5-5--0-0--5-5--0--5--|-------------------------|
B|--0-0--0-0--0-0--0-0--0--0--|--10--7------------7-----|
G|----------------------------|----------9-----9--------|
D|----------------------------|-------------9--------9~-|
A|----------------------------|-------------------------|
E|----------------------------|-------------------------|

Not quite sure what they play here, but something like

e|-----------------------|
B|--0-5-0-4-0-5-0-7------|
G|-----------------------| Repeat Till End. (Thanks to Fepo for the correction)
D|-----------------------|
A|-----------------------|
E|-----------------------|

Have Fun!

            
            
Suggest correction
Creating personal tab
Creating personal tab
You can edit any tab online and save it as your Personal.

You can edit, replace or remove any tab part or add personal notes – all changes will be seen only by you.

Personal tabs can be accessed anytime from any device, even offline.
Learn more »
comments
print report bad tab
1 comment total.
0 reply
Fepo 808 Mar 28, 2013 07:02 AM

Hi, very good, but i see the end is not correct.
Yours:
e|-----------------------|
B|-------5-7-------5-7---|
G|--9-8-------9-8--------| Repeat Till End.
D|-----------------------|
A|-----------------------|
E|-----------------------|

The Notes are ok, but hear to to the Song and you think its THUNDERSTRUCK from AC DC at the end ;). In this case you can hear the playing B.

My correction:

e|-----------------------|
B|--0-5-0-4-0-5-0-7------|
G|-----------------------| Repeat Till End.
D|-----------------------|
A|-----------------------|
E|-----------------------|

guest
You may want to rate the tab now too:
select rating
Wanna post a correction for this tab? Suggest correction