Oops, an error
Loading. Please wait.

Nababaliw Na Ang Payaso tab

version 1
version 1

Whole song

by Aizo
2,635 views 1 this week
no commentswrite comment
1 2 3 4 5
3 more votes to show rating
add to favorites
×
Save as Personal and add changes to this tab that will be seen only by you. Learn more ›
×
You can save this tab as Personal to edit and correct it or add notes. All changes will be seen only by you. Learn more »
launch autoscroll
font size
0
reset
how to read this tab
guitar tuner
edit
Autoscroll
slow
fast
+/-
esc
set tempo
stop
Song: nababaliw na ang payaso
Artist: Aizo
Album: Nababaliw na ang Payaso


Tabber: -chico- 

add me @ friendster : mykro85@yahoo.com


(drum beat lang)
0:08
Sinabi mo noon, hindi na babalik ang kahapon
Ngunit bakit ngayon nandirito pa rin

Intro/verse
bass part
0:20
e-----------------------------------------------|
B-----------------------------------------------|
G-----------------------------------------------|
D-----------------------------------------------| 
A------6-4h6-4-6-7-8-7-6-4----------------------|
D----5------------------------------------------|

g1
e----4h5--4---5---6----4---5----4h0-------------|
B----5----5---6---7----5---6----5---------------|
G----5----6---7---7----6---7----5---------------|
D-----------------------------------------------| 
A-----------------------------------------------|
D-----------------------------------------------|

e----4---5---6---|------4/5---------------------|
B----5---6---7---|------5/6---------------------|
G----6---7---7---|------5/6---------------------|
D----------------|------------------------------| 
A----------------|------------------------------|
D----------------|------------------------------|

g2
e-----------------------------------------------|
B--------7---5--5--7--8---9----8--7--5----------|
G--------8---6--6--8--9---10---9--8--6----------|
D----7---8---6--6--8--9---10---9--8--6----------| 
A----7---6---4--4--6--7---8----7--6--4----------|
D----5------------------------------------------|

                      OR

e-------6--4--4--6--7--8----7--6--4-------------|
B-------7--5--5--7--8--9----8--7--5-------------|
G-------8--6--6--8--9--10---9--8--6-------------|
D----7------------------------------------------| 
A----7------------------------------------------|
D----5------------------------------------------|

0:37
Sinabi niya sa akin, sagabal lang ang damdamin
Ang magmamahal ay mahina din
Sagot ba ang kamatayan sa lahat ng katanungan
Ang paningin niya, ngayo'y dumidilim
Kung diyos mo'y makasalanan, 
Sasambitin pa ba ang kanyang ngalan
Paniniwala niya'y nawala na rin
Kung dati ang problema'y saglit lamang
Nagayon ito'y mahirap kalimutan
Pag-iisip niya'y naging malabo na rin


chorus
bass part
1:39
e-----------------------------------------------|
B-----------------------------------------------|
G-----------------------------------------------|
D-----------------------------------------------| 
A-----------------------------------------------|
D----5h7--7-5-5-3-3-5--5h7--7-5-5-3-3-5---------|


g1
e----5----7----3----5----7----3------------------------|
B----6----8----4----6----8----4-(paulit-ulit lang)-----|
G----7----9----5----7----9----5------------------------|
D-------------------------------------------------77---| 
A-------------------------------------------------77---|
D-------------------------------------------------55---|

Nawala na ang kinang at ang kasiyahan
Ang ngiti sa mukha ay nakalimutan
Nagunaw na lahat sa kanyang mundo
Kaya nagayon ay, nababaliw na ang payaso

1:56
e----6---9--6--------6---9/8--------------------|
B----7--------7---7-----------------------------|
G----7------------------------------------------|
D-----------------------------------------------| 
A-----------------------------------------------|
D-----------------------------------------------|

verse
g2
2:04
e-----------------------------------------------|
B-----------------------------------------------|
G-----------------------------------------------|
D------7--------8------9-----8------------------| paulit ulit lang
A--------7--0-6---6--7---7-6---6----------------|
D----5------------------------------------------|

g1
e-------------------------------------------------|
B-------------------------------------------------|
G----------88-0--99-0--88-0--------88-0-99-0-88-0-|
D----77-0--88-0--99-0--88-0--77-0--88-0-99-0-88-0-| paulit ulit lang
A----77-0--66-0--77-0--66-0--77-0--66-0-77-0-66-0-|
D----55-0--------------------55-0-----------------|

Ang mundo niya ay isang teatro
Buhay niya ay isang entablado
Pero ang payaso ay tao pa rin
Sa kaliwa ang hawak niya'y baraha
Sa kanan tangan niya'y gitara
Nag-iisip kung alin ang uunahin niya
Noo'y nagpapatawa ang payaso
Walang pakialam kahit magago
Pero bakit naging sensitibo na rin
Wala mang bahid ng kalungkutan
Pero huwad naman ang kasiyahan
Siya'y punong-puno ng tuwa't pighati

chorus
bass part
3:06
e-----------------------------------------------|
B-----------------------------------------------|
G-----------------------------------------------|
D-----------------------------------------------| 
A-----------------------------------------------|
D----5h7--7-5-5-3-3-5--5h7--7-5-5-3-3-5---------|


g1
e----5----7----3----5----7----3------------------------|
B----6----8----4----6----8----4-(paulit-ulit lang)-----|
G----7----9----5----7----9----5------------------------|
D-------------------------------------------------77---| 
A-------------------------------------------------77---|
D-------------------------------------------------55---|

Nawala na ang kinang at ang kasiyahan
Ang ngiti sa mukha ay nakalimutan
Nagunaw na lahat sa kanyang mundo
Kaya nagayon ay, nababaliw na ang payaso

3:22
e----6----4--5--6-------------------------------|
B----7----5--6--7-------------------------------|
G----7----6--7--7-------------------------------|
D-----------------------------------------------| 
A-----------------------------------------------|
D-----------------------------------------------|

3:29
e-------6--9/10----14-12----12---------------------------|
B----7-------------------14-------11-9----9-11-9----9h11-|
G--------------------------------------11--------11------|
D--------------------------------------------------------| 
A--------------------------------------------------------|
D--------------------------------------------------------|


bridge
g1
3:38
e-----------------------------------------------|
B-----------------------------------------------|
G-----------------------------------------------|
D------------88--7------------------------------| 
A---------4--66--5------------------------------|
D----4--6---------------------------------------|


e------5-7--9--8--6-----------------------------|
B----7------8--7--5-----------------------------|
G-----------------------------------------------|
D-----------------------------------------------| 
A-----------------------------------------------|
D-----------------------------------------------|

g2
e----7--5----5--7--5---5-7-5---5-7--------------|
B---------7----------7-------7---6--------------|
G-----------------------------------------------|
D-----------------------------------------------| 
A-----------------------------------------------|
D-----------------------------------------------|

g1
3:46
e-----------------------------------------------|
B-----------------------------------------------|
G-----------------------------------------------|
D------------88--7------------------------------| 
A---------4--66--5------------------------------|
D----4--6---------------------------------------|



e------5-7--9--8--6-----------------------------|
B----7------8--7--5-----------------------------|
G-----------------------------------------------|
D-----------------------------------------------| 
A-----------------------------------------------|
D-----------------------------------------------|

g2
e----7/5-----------5h65h65h65h7----5h7-5-7------|
B--------7-5-7/5-----------------7--------------|
G-----------------------------------------------|
D-----------------------------------------------| 
A-----------------------------------------------|
D-----------------------------------------------|

La,la,la,la,la,lalalala...

3:53
Lagi mo na lang sinasalo
Ang lahat ng aking ibinabato
Pagharap ko sa salamin
Nandoon ang payaso't nakatingin sa akin

verse
bass part
4:09
e-----------------------------------------------|
B-----------------------------------------------|
G-----------------------------------------------|
D-----------------------------------------------| 
A------6-4h6-4-6-7-8-7-6-4----------------------|
D----5------------------------------------------|

g1
e----4h5--4---5---6----4---5----4h0-------------|
B----5----5---6---7----5---6----5---------------|
G----5----6---7---7----6---7----5---------------|
D-----------------------------------------------| 
A-----------------------------------------------|
D-----------------------------------------------|

Ano na ba ang kahahantungan
Ng payasong anonimo na sa lipunan
Hindi na maibabalik pa ang kahapon
Ang payaso noon ay hindi na ngayon

g2
4:24
e-----------------------------------------------|
B-----------------------------------------------|
G-----------------------------------------------|
D------7--------8------9-----8------------------| 
A--------7--0-6---6--7---7-6---6----------------|
D----5------------------------------------------|

g1
e-------------------------------------------------|
B-------------------------------------------------|
G----------88-0--99-0--88-0--------88-0-99-0-88-0-|
D----77-0--88-0--99-0--88-0--77-0--88-0-99-0-88-0-| 
A----77-0--66-0--77-0--66-0--77-0--66-0-77-0-66-0-|
D----55-0--------------------55-0-----------------|

Wala na siyang pakiramdam
Wala na siyang pakialam
Wala na siyang tatakbuhan
Poot at galit ang nararamdaman

chorus
4:39
e-----------------------------------------------|
B-----------------------------------------------|
G---77777777--66666666--------------------------|
D---77777777--66666666--77777777--66666666------| 
A---55555555--44444444--77777777--66666666------|
D-----------------------55555555--44444444------|

e-----------------------------------------------|
B-----------------------------------------------|
G---77777777--66666666--------------------------|
D---77777777--66666666--77777777-------77-------| 
A---55555555--44444444--77777777-------77-------|
D-----------------------55555555-------55-------|

Nawala na ang kinang at ang kasiyahan
Ang ngiti ay napawi ng kalungkutan
Ako ang payaso, ang payaso ay ako
Pero 'di ko alam, nababaliw na ang payaso

bass part
4:54
e-----------------------------------------------|
B-----------------------------------------------|
G-----------------------------------------------|
D-----------------------------------------------| 
A------6-4h6-4-6-7-8-7-6-4----------------------|
D----5------------------------------------------|

g1
e----4h5--4---5---6----4---5----4h0-------------|
B----5----5---6---7----5---6----5---------------|
G----5----6---7---7----6---7----5---------------|
D-----------------------------------------------| 
A-----------------------------------------------|
D-----------------------------------------------|

Nababaliw na ang payaso...

g2
5:09
e-----------------------------------------------|
B-----------------------------------------------|
G-----------------------------------------------|
D------7--------8------9-----8------------------| 
A--------7--0-6---6--7---7-6---6----------------|
D----5------------------------------------------|

g1
e-------------------------------------------------|
B-------------------------------------------------|
G----------88-0--99-0--88-0--------88-0-99-0-88-0-|
D----77-0--88-0--99-0--88-0--77-0--88-0-99-0-88-0-| 
A----77-0--66-0--77-0--66-0--77-0--66-0-77-0-66-0-|
D----55-0--------------------55-0-----------------|

Nababaliw...nababaliw...
Nababaliw na ang payaso 

            
            
Suggest correction
Creating personal tab
Creating personal tab
You can edit any tab online and save it as your Personal.

You can edit, replace or remove any tab part or add personal notes – all changes will be seen only by you.

Personal tabs can be accessed anytime from any device, even offline.
Learn more »
Give kudos to tab author, rate the tab!
1 2 3 4 5
comments
print report bad tab
guest
You may want to rate the tab now too:
select rating
Wanna post a correction for this tab? Suggest correction