Oops, an error
Loading. Please wait.

Nababaliw Na Ang Payaso tab

version 2
version 2

Whole song

by Aizo
854 views 1 this week
no commentswrite comment
1 2 3 4 5
3 more votes to show rating
add to favorites
×
Save as Personal and add changes to this tab that will be seen only by you. Learn more ›
×
You can save this tab as Personal to edit and correct it or add notes. All changes will be seen only by you. Learn more »
launch autoscroll
font size
0
reset
how to read this tab
guitar tuner
edit
Autoscroll
slow
fast
+/-
esc
set tempo
stop
Author
tabbed by:Agoy Tenepre
artist:AIZO
song:nababaliw na ang payaso
album:nababaliw na ang payaso


for suggestions text/call me:09184418517 (smart)

add nyo na rin ako sa friendster= katerinoo@yahoo.com
(bigyan nyo nariin ako ng testi ha..^_^)

tuning:standard

/ = slide

intro:(drumbeat)

Sinabi mo noon, hindi na babalik ang kahapon
Ngunit bakit ngayon nandirito pa rin

then intro guitar:

E||--5-||
B||--5-||
G||--5-||
D||--7-||
A||--7-||
E||--5-||


guitar 1:         guitar 2:
            
E||-------------||    E||--4-4/5--------||
B||--5-4-3-1----||    B||--4-4/5--------||
G||-----------2-||    G||--4-4/5--------|| then repeat until verse 1 end
D||-------------||    D||---------------||
A||-------------||    A||---------------||
E||-------------||    E||---------------||

Verse 1:

Sinabi niya sa akin, sagabal lang ang damdamin
Ang magmamahal ay mahina din
Sagot ba ang kamatayan sa lahat ng katanungan
Ang paningin niya, ngayo'y dumidilim
Kung diyos mo'y makasalanan,
Sasambitin pa ba ang kanyang ngalan
Paniniwala niya'y nawala na rin
Kung dati ang problema'y saglit lamang
Nagayon ito'y mahirap kalimutan
Pag-iisip niya'y naging malabo na rin


chorus:

   Nawala na ang kinang at ang kasiyahan
          C                B
E||-------8----------------7------------||
B||-------8----------------7------------||
G||-------9----------------7------------||
D||-------10---------------9------------||
A||-------10---------------9------------||
E||-------8----------------7------------||
  Ang ngiti sa mukha ay nakalimutan
       Am            G
E||----5-------------3------------------||
B||----5-------------3------------------||
G||----5-------------4------------------||
D||----7-------------5------------------||
A||----7-------------5------------------||
E||----5-------------3------------------||
  Nagunaw na lahat sa kanyang mundo
          C                B
E||-------8----------------7------------||
B||-------8----------------7------------||
G||-------9----------------7------------||
D||-------10---------------9------------||
A||-------10---------------9------------||
E||-------8----------------7------------||
kaya ngayon ay, nababaliw na ang payaso
       Am          G                Am
E||----5----------33------------------5---||
B||----5----------33------------------5---||
G||----5----------44------------------5---||
D||----7----------55------------------7---||
A||----7----------55------------------7---||
E||----5----------33------------------5---||


then: (i-timing nyo lang)
    guitar 1                guitar 2
            
  E||----------------||   E||----8-----||
  B||--5-4-3-1-------||   B||------10--||
  G||----------2-----||   G||---------9||
  D||----------------||   D||----------||
  A||----------------||   A||----------||
  E||----------------||   E||----------||

continous to..
         
sabay ang guitar 1&2 DITO

   guitar 1        guitar 2
  E||--------||   E||-------10p8-||
  B||-----5--||   B||----10------||
  G||---2----||   G||--9---------||
  D||--------||   D||------------||
  A||--------||   A||------------||
  E||--------||   E||------------||


verse 2:

E||---------------------------||
B||---------------------------||  repeat till verse 2 end
G||---------------------------||
D||-----------5------9------7-||
A||----7-0-33---0-77---0-66---||
E||--55-----------------------||


Ang mundo niya ay isang teatro
Buhay niya ay isang entablado
Pero ang payaso ay tao pa rin
Sa kaliwa ang hawak niya'y baraha
Sa kanan tangan niya'y gitara
Nag-iisip kung alin ang uunahin niya
Noo'y nagpapatawa ang payaso
Walang pakialam kahit magago
Pero bakit naging sensitibo na rin
Wala mang bahid ng kalungkutan
Pero huwad naman ang kasiyahan
Siya'y punong-puno ng tuwa't pighati

then repeat chorus:

after chorus
  guitar 1                       guitar 2
E||-----------------||           E||----------------||  E||--4-4/5--||
B||-------10p8------||           B||--5-4-3-1-------||  B||--4-4/5--||
G||--8/9-------9h12-||           G||----------2-----||  G||--4-4/5--||
D||-----------------||           D||----------------||  D||---------||
A||-----------------||           A||----------------||  A||---------||
E||-----------------||           E||----------------||  E||---------||

   guitar 1
E||--------10-----17-15-12-15-||  E||--5-3---3--5-3---3||
B||-----13--------------------||  B||------5--------5--||
G||---12----------------------||  G||------------------||
D||---------------------------||  D||------------------||
A||---------------------------||  A||------------------||
E||---------------------------||  E||------------------||

ADLIB:
  lalalalalalalalalala

E||--------------------------------------------------||
B||--------------------3-5-4-3-----------------------||
G||------------------5---------5-2-0-2-5-2-0-2-5-2-5-||
D||----------------5---------------------------------||
A||-----3-5-7-6-5------------------------------------||
E||---5----------------------------------------------||

      lalalalalalallalalal
E||----------------------------------5-3-------------------------||
B||-----------------3-5-4-3--------5-----5--2/3-2--------------2-||
G||---------------5---------2--5-2----------------5--2-0-5-2---2-||
D||--------------5---------------------------------------------2-||
A||----3-5-7-6-5-------------------------------------------------||
E||--5-----------------------------------------------------------||

verse3(no instrument only vocals)

Lagi mo na lang sinasalo
Ang lahat ng aking ibinabato
Pagharap ko sa salamin
Nandoon ang payaso't nakatingin sa akin

next verse
E||--5-||
B||--5-||
G||--5-||
D||--7-||
A||--7-||
E||--5-||

timing nyo lang

guitar 1:         guitar 2:
            
E||-------------||    E||--4-4/5--------||
B||--5-4-3-1----||    B||--4-4/5--------||
G||-----------2-||    G||--4-4/5--------|| then repeat until verse 1 end
D||-------------||    D||---------------||
A||-------------||    A||---------------||
E||-------------||    E||---------------||

Ano na ba ang kahahantungan
Ng payasong anonimo na sa lipunan
Hindi na maibabalik pa ang kahapon
Ang payaso noon ay hindi na ngayon

then next verse


E||---------------------------||
B||---------------------------||  repeat till  verse end
G||---------------------------||
D||-----------5------9------7-||
A||----7-0-33---0-77---0-66---||
E||--55-----------------------||

Wala na siyang pakiramdam
Wala na siyang pakialam
Wala na siyang tatakbuhan
Poot at galit ang nararamdaman


then repeat chorus strumming with distortion..

then.. 

E||---------------------------||
B||---------------------------||  repeat till end
G||---------------------------||
D||-----------5------9------7-||
A||----7-0-33---0-77---0-66---||
E||--55-----------------------||
na babaliw na babaliw 7x
na baba liw na ang payaso



then end..!

wag nyong kalimutan i-rate..

add nyo rin aq sa friendster ha...!

TY...^_^

            
            
Suggest correction
Creating personal tab
Creating personal tab
You can edit any tab online and save it as your Personal.

You can edit, replace or remove any tab part or add personal notes – all changes will be seen only by you.

Personal tabs can be accessed anytime from any device, even offline.
Learn more »
Give kudos to tab author, rate the tab!
1 2 3 4 5
comments
print report bad tab
guest
You may want to rate the tab now too:
select rating
Wanna post a correction for this tab? Suggest correction