Oops, an error
Loading. Please wait.

Trip Na Trip tab

version 2
version 2

Whole song

by Aizo
260 views 1 this week
no commentswrite comment
1 2 3 4 5
3 more votes to show rating
add to favorites
×
Save as Personal and add changes to this tab that will be seen only by you. Learn more ›
×
You can save this tab as Personal to edit and correct it or add notes. All changes will be seen only by you. Learn more »
launch autoscroll
font size
0
reset
how to read this tab
guitar tuner
edit
Autoscroll
slow
fast
+/-
esc
set tempo
stop
Author
Difficulty
Tabbed by: RAP MAC
Email: wicked_thursday@lycos.com
Tuning: Open E (standard)
Font: Courier New (for best view)
Message: "Mga puta kyo lahat"

Legend:
* - palm mute
~ - let ring
/ - slide up
\ - slide down
p - pull of
x - dead string
d - down stroke
u - up stroke

(drumbeat)
Intro
e|-----------------------------------|
B|-----------------------------------|
G|-----------------------------------|
D|------------------------------4-5--| 4X
A|---------5-5-2p0-5-5-3--3-2-2------|
E|--///\\\-3-3-----3-3---------------|

Verse I (repeat twice)
e|-----------------------------------|
B|-----------------------------------|
G|-----------------------------------|
D|--5-5-5-5-4-4-4-4-------------7p5--| 2X
A|------------------5-5-5-5-7p5------|
E|-----------------------------------|

e|-----------------------------------|
B|-----------------------------------|
G|------------------5-5-5-5-7-7-7-7--|
D|--7-7-7-7-7-7-7-7-5-5-5-5-7-7-7-7--|
A|--7-7-7-7-7-7-7-7-3-3-3-3-5-5-5-5--|
E|--5-5-5-5-5-5-5-5------------------|

Repeat Intro

Verse II (same as Verse I)

Chorus (repeat 4X)
e|-----------------------------------|
B|-----------------------------------|
G|-----------------------------------|
D|--5-5-5-5-5-5-5-5-2-2-2-2-2-2-2-2--|
A|--5-5-5-5-5-5-5-5-2-2-2-2-2-2-2-2--|
E|--3-3-3-3-3-3-3-3-0-0-0-0-0-0-0-0--|

e|-----------------------------------|
B|-----------------------------------|
G|------------------x-x-7-x-x-7------|
D|--7-7-7-7-7-7-7-7-x-x-7-x-x-7------|
A|--7-7-7-7-7-7-7-7-x-x-5-x-x-5------|
E|--5-5-5-5-5-5-5-5-x-x---x-x--------|

Repeat Intro twice

Verse III (same as Verse I)

Bridge I
e|-----------------------------------|
B|-----------------------------------|
G|-----------------------------------|
D|--9-9-9-9-9-9-9-9-9-9-9-9-9-9-9-9--|
A|--9-9-9-9-9-9-9-9-9-9-9-9-9-9-9-9--|
E|--7-7-7-7-7-7-7-7-7-7-7-7-7-7-7-7--|

e|------------------------------------|
B|------------------------------------|
G|------------------------------------|
D|--7-7-9-9-10-10-9-9-9-5-5-5-5-5-5-5-|
A|--7-7-9-9-10-10-9-9-9-5-5-5-5-5-5-5-|
E|--5-5-7-7-8--8--7-7-7-3-3-3-3-3-3-3-|
    d u d u d  d  u u d u u d u d u d

e|-----------------------------------|
B|-----------------------------------|
G|-----------------------------------|
D|--9-9-9-9-9-9-9-9-9-9-9-9-9-9-9-9--|
A|--9-9-9-9-9-9-9-9-9-9-9-9-9-9-9-9--|
E|--7-7-7-7-7-7-7-7-7-7-7-7-7-7-7-7--|

e|-----------------------------------------------|
B|-----------------------------------------------|
G|-----------------------------------------------|
D|--7-7-9-9-10-10-9-9-9-12-12-12-12-12-12-12-12\-|
A|--7-7-9-9-10-10-9-9-9-12-12-12-12-12-12-12-12\-|
E|--5-5-7-7-8--8--7-7-7-10-10-10-10-10-10-10-10\-|
    d u d u d  d  u u d u  u  d  u  d  u  d  u

Bridge II (repeat 8X)
Bass Solo
G|-----------------|
D|-----------------|
A|-------2p0-------|
E|--3--3-----3-3---|

Guitar (palm mute)
e|-----------------|
B|-----------------|
G|-----------------|
D|-----------4-5---|
A|--3--3-5-5-------|
E|-----------------|
    *  * * * * *
4th time
e|-----------------|
B|-----------------|
G|-----------------|
D|-----------4-5---|
A|--3--3-5-5-------|
E|-----------------|

8th time
e|-----------------|
B|-----------------|
G|--7--------------|
D|--7--------------|
A|--5--------------|
E|----------///\\\-|

Repeat Chorus 2X

8th time
e|-----------------------------------|
B|-----------------------------------|
G|-----------------------------------|
D|--5-5-5-5-5-5-5-5-2-2-2-2-2-2-2-2--|
A|--5-5-5-5-5-5-5-5-2-2-2-2-2-2-2-2--|
E|--3-3-3-3-3-3-3-3-0-0-0-0-0-0-0-0--|

e|-----------------------------------|
B|-----------------------------------|
G|------------------x-x-7-x-x-7------|
D|--7-7-7-7-7-7-7-7-x-x-7-x-x-7------|
A|--7-7-7-7-7-7-7-7-x-x-5-x-x-5------|
E|--5-5-5-5-5-5-5-5-x-x---x-x--------|

e|-----------------------------------|
B|-----------------------------------|
G|--x-x-7-x-x-7-x-x-7-x-x-7-x-x------|
D|--x-x-7-x-x-7-x-x-7-x-x-7-x-x-5~---|
A|--x-x-5-x-x-5-x-x-5-x-x-5-x-x-5~---|
E|--x-x---x-x---x-x---x-x---x-x-3~---|

End

2nd tab ko to! Sna Mgustuhan nyo!
Email nyo ko if may problema...
Putang ina nyo!
Lagi nlng kyo umaasa sa tabs!

            
            
Suggest correction
Creating personal tab
Creating personal tab
You can edit any tab online and save it as your Personal.

You can edit, replace or remove any tab part or add personal notes – all changes will be seen only by you.

Personal tabs can be accessed anytime from any device, even offline.
Learn more »
Give kudos to tab author, rate the tab!
1 2 3 4 5
comments
print report bad tab
guest
You may want to rate the tab now too:
select rating
Wanna post a correction for this tab? Suggest correction