Oops, an error
Loading. Please wait.

When We Say Juicebox tab

version 2
version 2

Whole song

Video

15,089 views 3 this week
1 commentread comment
1 2 3 4 5
x 4
add to favorites
×
Save as Personal and add changes to this tab that will be seen only by you. Learn more ›
×
You can save this tab as Personal to edit and correct it or add notes. All changes will be seen only by you. Learn more »
launch autoscroll
font size
0
reset
how to read this tab
guitar tuner
edit
Autoscroll
slow
fast
+/-
esc
set tempo
stop
Author
-------------------------------------------------------------------------------
                             When We Say (Juice Box) - Aj Rafael
-------------------------------------------------------------------------------
Tabbed by: Jhustyne

Email: Jbrother1995@yahoo.com

The pattern is simple as soon as you play along. 

Tuning: half-step down or standard

Order:Intro,Verse,Chorus,Intro,verse,chorus,bridge,and last chorus

Intro                            
e|--0--0---0----0--0---0----7-/-5-|
B|--0--0---0----0--0---0----0-/-0-|
G|--9--8-h-9----9--8-h-9----8-/-6-|
D|--9--9---9----9--9---9----9-/-7-|
A|--7--7---7----0--0---0----0---0-|
E|--0--0---0----x--x---x----x---x-|

Verse(2x)
e|--x--x--x--x----x--x--x--x-|-0--0--0--|
B|--x--x--x--x----x--x--x--x-|-0--0--0--|
G|--9--8--9--8----9--8--9--8-|-2--2--4--|
D|--9--9--9--9----9--9--9--9-|-2--2--4--|
A|--7--7--7--7----x--x--x--x-|-0--x--2--|
E|--x--x--x--x----9--9--9--9-|-x--2--x--|

Chorus
e|--0--0--0----0--0---0----0--0---0----0--0--0--|
B|--0--0--0----0--0---0----0--0---0----0--0--0--|
G|--6--8--9----2--4-/-6----2--4-/-6----3--2--4--|
D|--7--9--9----2--4-/-6----2--4-/-6----4--2--4--|
A|--7--9--7----0--2-/-4----0--2-/-4----4--0--2--|
E|--5--7--x----x--x---x----x--x---x----2--x--x--|

Note:During the bridge after the first 4 chords, strum once down then after those 
5 chords you go back into the pattern of the bridge.
                  Strum
                 /Down \               
Bridge          / Once  \
e|--0--0--0--0----0-0-0-0-0----0--0--0--2--0----0--0--0--0--0--0--|
B|--0--0--0--0----0-0-0-0-0----0--0--0--3--0----0--0--0--0--0--0--|
G|--2--4--2--4----4-4-4-4-4----2--4--2--2--2----2--4--2--3--6--8--|
D|--2--4--2--4----4-4-4-4-4----2--4--2--0--2----2--4--2--4--7--9--|
A|--x--x--0--2----2-0-0-0-0----x--x--0--0--0----x--x--0--4--7--9--|
E|--2--4--x--x----0-0-4-2-0----2--4--x--x--x----2--4--x--2--5--7--|

Last Chorus
e|--0--0--0----5--4---4----0--0--0--0--0--0--0--0----0--0--0--0--|
B|--0--0--0----5--4-h-5----0--0--0--0--0--0--0--0----0--0--0--0--|
G|--6--8--9----6--5---4----2--1--4--4--3--6--8--9----3--2--4--9--|
D|--7--9--9----7--6---6----2--2--4--2--4--7--9--9----4--2--4--9--|
A|--7--9--7----7--6---4----0--2--2--4--4--7--9--x----4--0--2--7--|
E|--5--7--0----5--4---4----x--x--x--x--2--5--7--9----2--x--x--x--|



************************************************************

| /   slide up
| \   slide down
| h   hammer-on
| p   pull-off
| ~   vibrato
| +   harmonic
| x   Mute note
| b   Bend
| pb  Pre-bend
| br  Bend release
| pbr Pre-bend release
| brb Bend release bend

            
            
Suggest correction
Creating personal tab
Creating personal tab
You can edit any tab online and save it as your Personal.

You can edit, replace or remove any tab part or add personal notes – all changes will be seen only by you.

Personal tabs can be accessed anytime from any device, even offline.
Learn more »
comments
print report bad tab
1 comment total.
0 reply
avelineeva 31 Sep 10, 2010 05:39 PM

I just wanted to say that the tuning is actually 1/2 Step down.
If you listen to the acoustic in his video.

guest
You may want to rate the tab now too:
select rating
Wanna post a correction for this tab? Suggest correction