Oops, an error
Loading. Please wait.

Praise The Name Of Satan tab

977 views 1 this week
no commentswrite comment
1 2 3 4 5
x 3
add to favorites
×
Save as Personal and add changes to this tab that will be seen only by you. Learn more ›
×
You can save this tab as Personal to edit and correct it or add notes. All changes will be seen only by you. Learn more »
launch autoscroll
font size
0
reset
how to read this tab
guitar tuner
edit
Autoscroll
slow
fast
+/-
esc
set tempo
stop
this is not my own tab, i got this from another site because ultimate-guitar didn't have
this tab or any other akercocke tabs.
tribute to John Mansley. "borowed" by Paul Filth.

Band:  Akercocke
Album: Chronozon
Song:  Praise The Name Of Satan

Copyright (c)  (Earache) (2003)
Version 1.0 - (10/10/04)

Transcribed By: John Mansley
Email:          john@smansley.freeserve.co.uk


.  - palm mute           /  - slide up to
\  - slide down to       ~  - vibrato
h  - hammer on           b  - Bend
p  - pull off            Suffixes for bend
t  - tap                 f  - full bend    h - half bend
ph - pinched harmonic    q  - quarter bend t - tap bend
*  - see comment         ^  - Hold bend    r release bend
x  - Stuccatto           ~  - vibrato bend
,  - slight palm mute    () - ghost note, sustained note
"  - tremolo note        <> - Trill
nh - natural harmonic

Notes  : All guitars are notated as distorted unless otherwise
         stated.

Tunning: Tune down 2 whole steps to C F A# D# G C


Intro:                              ________________
                                                 1,3|
|----------------------------------|-----------------|
|----------------------------------|-----------------|
|--8-8-8-811111111-8-8-8-811111111-|---0---0---0---0-|
|-10101010121313131010101012131313-|-----6-------6---|
|----------------------------------|-----------------|
|----------------------------------|-4-------4-------|

 ________________  ____________
                2|            4|
|-----------------|-------------|
|-----------------|-------------|
|-----0-------0---|-Interlude-1-|
|---4---4---4---4-|-------------|
|-----------------|-------------|
|-2-------2-------|-------------|


Interlude 1:               ____________________
                                              1|
|-------------------------|---------------------|
|-------------------------|---------------------|
|-------0-----------0-----|-------0-----------0-|
|-----4---4-------4---4---|-----4---4-------4---|
|---4-------4---5-------5-|---4-------4---5-----|
|-2-----------3-----------|-2-----------3-------|

 ________________________
                        2|
|-------------------------|
|-------------------------|
|-------0-----------0-----|
|-----7---7-------8---8---|
|---7-------7---8-------8-|
|-5-----------6-----------|


Interlude 2: Clean tone
                           ________________________
                                                1,3|
|---------0-----------0---|-------------------------|
|-----------0-----------0-|-----------0-----------0-|
|-----5-----------5-------|-----4---4-------4---4---|
|---7---7-------7---7-----|---6---6-------6---6-----|
|-7-----------7-----------|-6-----------6-----------|
|-------------------------|-------------------------|

 ____________________  ____________
                    2|            4|
|---------------------|-------------|
|---------------------|-------------|
|-------0---------0---|-Interlude-1-|
|-----4---4-----4---4-|---(clean)---|
|---4---------4-------|-------------|
|-2---------2---------|-------------|


Riff A:

|------------------|--------------------------|------------------|
|------------------|--------------------------|------------------|
|------------------|--------------------------|------------------|
|-9999999999999999-|-99999999-----------------|------------------|
|-7777777777777777-|-777777771010101010101010-|-9999999999999999-|
|------------------|----------8-8-8-8-8-8-8-8-|-7777777777777777-|

|--------------------------|
|--------------------------|
|--------------------------|
|---------1212121212121212-|
|-999999991010101010101010-|
|-77777777-----------------|


Interlude 3: I think guitar 2 just doubles guitar 1 for this


|-----------t-----------------t----------|
|-10h12h13h17p13p12p10h12h13h17p13p12p10-|
|----------------------------------------|
|----------------------------------------|
|----------------------------------------|
|----------------------------------------|


|-----------t-----------------t----------|
|-10h12h13h17p13p12p10h12h13h20p13p12p10-|
|----------------------------------------|
|----------------------------------------|
|----------------------------------------|
|----------------------------------------|


|---------t--------------t--------|---------t--------------t--------|
|-7h8h10h12p10p8p7h8h10h12p10p8p7-|-7h8h10h12p10p8p7h8h10h20p10p8p7-|
|---------------------------------|---------------------------------|
|---------------------------------|---------------------------------|
|---------------------------------|---------------------------------|
|---------------------------------|---------------------------------|


Riff B:

|---------------------|----------------------|
|---------------------|----------------------|
|-"-"--"--"--"-"--"-"-|-"-"--"-"--"--"--"--"-|
|-9-9-10-12-10-9-10-9-|-9-9-10-9-12-10-12-14-|
|-7-7--8-10--8-7--8-7-|-7-7--8-7-10--8-10-12-|
|---------------------|----------------------|


Lead 1:

|------------------------|---------------------|
|----------------10------|---------------------|
|-------5/7-9-11----11-9-|-7\5-----------------|
|-5-7-9------------------|-----9-7-5-----------|
|------------------------|-----------7-5-3-5-7-|
|------------------------|---------------------|


|---------------------|-------------------------19bf-|
|---------------8-----|------------------------------|
|-------4/5-7-9---9-7-|-5\4-------/12----121416------|
|-4-5-7---------------|-----7-5-4--------------------|
|---------------------|------------------------------|
|---------------------|------------------------------|


Riff C1:

|----------------|----------------|----------------|----------------|
|----------------|----------------|----------------|----------------|
|----------------|----------------|----------------|----------------|
|----------------|----------------|----------------|----------------|
|----------------|5-5-5-5-5-5-5-5-|----------------|4-4-4-4-4-4-4-4-|
|1-1-1-1-1-1-1-1-|----------------|0-0-0-0-0-0-0-0-|----------------|
 . . . . . . . .  . . . . . . . .  . . . . . . . .  . . . . . . . .


Riff C2:

|Gtr1
|----------------|----------------|----------------|----------------|
|----------------|----------------|----------------|----------------|
|----------------|----------------|----------------|----------------|
|6-6-6-6-6-6-6-6-|3-3-3-3-3-3-3-3-|5-5-5-5-5-5-5-5-|6-6-6-6-6-6-6-6-|
|8-8-8-8-8-8-8-8-|5-5-5-5-5-5-5-5-|7-7-7-7-7-7-7-7-|4-4-4-4-4-4-4-4-|
|----------------|----------------|----------------|----------------|
|                |                |                |                |
|Gtr2            |                |                |                |
|----------------|----------------|----------------|----------------|
|----------------|----------------|----------------|----------------|
|----------------|----------------|----------------|----------------|
|----------------|----------------|----------------|----------------|
|----------------|5-5-5-5-5-5-5-5-|----------------|4-4-4-4-4-4-4-4-|
|1-1-1-1-1-1-1-1-|----------------|0-0-0-0-0-0-0-0-|----------------|
 . . . . . . . .  . . . . . . . .  . . . . . . . .  . . . . . . . .


Riff D1:
                   ________________  ________________
|Gtr1 (clean)                     1|                2|
|-----------------|-----------------|-----------------|
|-----------------|-----------------|-----------------|
|-----------------|-----------------|-----------------|
|-----------------|---------0---0---|---------3---3---|
|-4-----------5---|-----------4---4-|-----------7---7-|
|-------1---------|-0---------------|-0---------------|
|                 |                 |                 |
|Gtr2 (dist.)     |                 |                 |
|-----------------|-----------------|-----------------|
|-----------------|-----------------|-----------------|
|-----------------|-----------------|-----------------|
|-6-----------7---|-----------------|-----------------|
|-4-----3-----5---|-2---------------|-2---------------|
|-------1---------|-0---------------|-0---------------|


Riff D2:

|-----------------|-----------------|
|-----------------|-----------------|
|-----------------|-----------------|
|-----------------|-----------------|
|-4-4-4-------5-5-|-----------------|
|-------1-1-1-----|-0-0-0-0-0-0-0-0-|
  . . . . . . . .   . . . . . . . .


Interlude 4: Clean

|-----------------------------|
|-----------------------------|
|-----0-----0-------0-----0---|
|---4--------------4----4---4-|
|-6-------2-------------------|
|-------3-----2---------------|


Interlude 5:

|Gtr1 (dist.)
|--------------------------|--------------------------|
|--------------------------|-------------------12~~~~-|
|-------10----12bh-------r-|-------10----12-----------|
|-10-----------------------|-10-----------------------|
|--------------------------|--------------------------|
|--------------------------|--------------------------|
|                          |                          |
|Gtr2 (clean)              |                          |
|--------------------------|--------------------------|
|--------------------------|--------------------------|
|-----0-----0------0---0---|-----0-----0------0---0---|
|---4-----9----------------|---4-----9----------------|
|-3-----8-----10-9---9---9-|-3-----8-----10-9---9---9-|
|--------------------------|--------------------------|


Riff E:

|----------------|----------------|----------------|----------------|
|----------------|----------------|----------------|----------------|
|----------------|----------------|----------------|----------------|
|-4------4--4--4-|-4------4--4--4-|-5------5--5--5-|-5------5--5--5-|
|-4------4--4--4-|-4------4--4--4-|-5------5--5--5-|-5------5--5--5-|
|-2------2--2--2-|-2------2--2--2-|-3------3--3--3-|-3------3--3--3-|
         .  .  .          .  .  .          .  .  .          .  .  .


Rhy. Fill:

|----------------|----------------|----------------|----------------|
|----------------|----------------|----------------|----------------|
|----------------|----------------|----------------|----------------|
|-4--------------|----------------|----------------|----------------|
|-4--------------|----------------|----------------|----------------|
|-2--------------|----------------|----------------|----------------|


Lead 2:

|---------------|---------------|---------------|-------------------|
|---------------|---------------|---------------|-------------------|
|---------------|---------------|---------------|-------------------|
|---------------|---------------|---------------|-------------------|
|---------------|---------------|-10bh--grad----|-/12-14-15-/17bh--r|
|---------------|---------------|---------------|-------------------|


|---------------|---------------|---------------|---------------|
|---------------|---------------|---------------|---------------|
|---------------|---------------|---------------|---------------|
|---------------|---------------|---------------|---------------|
|-16------------|---------------|---------------|---------------|
|---------------|---------------|---------------|---------------|


Riff F:

|------------------|
|------------------|
|------------------|
|------------------|
|------------------|
|-2222111133331111-|
  ................


Riff G:

|----------------------------------|--------------------|
|----------------------------------|--------------------|
|-h1p0h1p0h4p0h4p0h8p0h8p0h8p0h7p0-|--------------------|
|----------------------------------|-/5555----/5555-----|
|----------------------------------|--------------------|
|----------------------------------|------0000-----0000-|
                                          ....     ....


Riff H1:

|------------------|------------------|
|------------------|------------------|
|------------------|------------------|
|------------------|------------------|
|------------------|------------------|
|-0000661100000000-|-0000111100004444-|
  ................   ................


Riff I:

|---------------------|---------------------|
|---------------------|---------------------|
|---------------------|---------------------|
|------9-10------9-10-|------9-12------9-12-|
|-2----7--8------7--8-|------7-10------7-10-|
|-0---------0000------|-0000------0000------|
  .         ....        ....      ....

|---------------------|---------------------|
|---------------------|---------------------|
|---------------------|---------------------|
|------9-13------9-13-|------9-12------9-12-|
|------7-11------7-11-|------7-10------7-10-|
|-0000------0000------|-0000------0000------|
  ....      ....        ....      ....

|---------------------|---------------------|
|---------------------|---------------------|
|---------------------|---------------------|
|------9-10------9-10-|------9-12------9-12-|
|------7--8------7--8-|------7-10------7-10-|
|-0000------0000------|-0000------0000------|
  ....      ....        ....      ....

|---------------------|---------------------|
|---------------------|---------------------|
|---------------------|---------------------|
|------9-13------9-13-|------9-12------9-12-|
|------7-11------7-11-|------7-10------7-10-|
|-0000------0000------|-0000------0000------|
  ....      ....        ....      ....


Riff H2:

|------------------|--------------------|
|------------------|--------------------|
|------------------|--------------------|
|------------------|--------------------|
|------------------|----------2--66-5-3-|
|-0000661100000000-|-00001111-0--44-3-1-|
  ................   ........ .  .. . .


Lead 3:

|-0h1p0-----0h1h3h4-0h3h4h6-|-0h4h6h7----------------|
|---------------------------|------------------------|
|---------------------------|------------------------|
|---------------------------|------------------------|
|---------------------------|------------------------|
|---------------------------|------------------------|


|-12131516151312------------------------------12131516-|
|---------------15141211--------------11121415---------|
|-----------------------16151312131516-----------------|
|------------------------------------------------------|
|------------------------------------------------------|
|------------------------------------------------------|


|-12131618~-15161819~-16181921~-18192122-24bh-24bh~-|
|---------------------------------------------------|
|---------------------------------------------------|
|---------------------------------------------------|
|---------------------------------------------------|
|---------------------------------------------------|



Song Structure:

Intro
Interlude 2
Riff A       (x2)
Interlude 3  (x2)
Riff A       (x2)
Riff B       (x2)
                  _
Riff B       (x2) _| w/Lead 1

Riff C1      (x2)
Riff C2      (x2)
Riff D1      (x2)
Riff D2      (x4)
Interlude 4  (x4)
Interlude 5  (x2)
Interlude 4  (x4)
Interlude 5  (x2)
Riff E
                  _
Riff E             | w/Lead 2
Rhy. Fill         _|

Riff F       (x6)
Riff G       (x2)
Riff F       (x4)
Riff G       (x2)
Riff H1      (x2)
Riff I
Riff H1
Riff H2
                  _
Riff H1            | w/Lead 3
Riff H2           _|


OK, it should be all there unless I've forgotten something.
Obviously, there are going to be parts that aren't exact so
any comments, suggestions or corrections are encouraged.

Also, I encourage you to register a rating that reflects the
quality of this tab.  The only way I know that a tab needs
improving or not is if people give it an accurate rating.
Thanks in advance.

            
            
Suggest correction
Creating personal tab
Creating personal tab
You can edit any tab online and save it as your Personal.

You can edit, replace or remove any tab part or add personal notes – all changes will be seen only by you.

Personal tabs can be accessed anytime from any device, even offline.
Learn more »
Give kudos to tab author, rate the tab!
1 2 3 4 5
comments
print report bad tab
guest
Wanna post a correction for this tab? Suggest correction