Oops, an error
Loading. Please wait.

Ii tab

186 views 1 this week
no commentswrite comment
1 2 3 4 5
3 more votes to show rating
add to favorites
×
Save as Personal and add changes to this tab that will be seen only by you. Learn more ›
×
You can save this tab as Personal to edit and correct it or add notes. All changes will be seen only by you. Learn more »
launch autoscroll
font size
0
reset
how to read this tab
guitar tuner
edit
Autoscroll
slow
fast
+/-
esc
set tempo
stop
Author
----------------------------------------------------------------------------
                               Akissforjersey
                                     II
----------------------------------------------------------------------------

Hello, here I am with another tab for Akissforjersey, and what influenced me to make
tab is that this song sounds like there other song Devices. So I thought, if I could make
one, I can make this one. Well this one is difficult, because of the different guitar 
blocking out the other one. So if it is a bit off on guitar parts please tell me, and
have a fit about it. Enjoy!

Username: dkm817 (same on X box live)
Email: guitardrums@rockfan.com

Guitar 1: Rhythmic (C# G# C# F# A# D#)
Guitar 2: Lead     (C# G# C# F# A# D#)

Intro (starts off with a drum breakdown)

Guitar 1
D#-------------------------------------------------------------|
A#-------------------------------------------------------------|
F#-------------------------------------------------------------|
C#-------------------------0-0-0-------------------------0-0-0-|
G#-5\0---------------------0-0-0-5\0---------------------0-0-0-|
C#------0--2-3-5-2---5--3--0-0-0------0--2-3-5-2---5--3--0-0-0-|
pm                         . . .                         . . .

Guitar 2
D#---------------------------------------------------------------|
A#---------------------------------------------------------------|
F#---------------------------------------------------------------|
C#--------------------------0-0-0--------------------------0-0-0-|
G#-5\0---------5\0----3--1--0-0-0-5\0---------5\0----3--1--0-0-0-|
C#------0--2-5------2-------0-0-0------0--2-5------2-------0-0-0-|
pm                          . . .                          . . . 

Guitar 1
D#------------------------------------------------------|
A#------------------------------------------------------|
F#------------------------------------------------------|
C#-------------------------0-0-0------------------------|
G#-5\0---------------------0-0-0-5\0--------------------|
C#------0--2-3-5-2---5--3--0-0-0------0--2-3-5-2---5--3-|
pm                         . . .

Guitar 2
F#--------------------------------------------------------|
A#--------------------------------------------------------|
D#--------------------------------------------------------|
C#--------------------------0-0-0-------------------------|
G#-5\0---------5\0----3--1--0-0-0-5\0---------5\0----3--1-|
C#------0--2-5------2-------0-0-0------0--2-5------2------|
pm                          . . .

Intro 2

Guitar 1 & 2
D#---------------------------------------------------------|
A#---------------------------------------------------------|
F#---------------------------------------------------------|
C#----------------------------------------------------3--5-|
G#----3--5------3--5----------3--5------3--5--------0------|
C#-0--------0-2-------0-3p0-2-------0-2-------0-3p0--------|

Guitar 1 & 2
D#-----------------------------------------|
A#-----------------------------------------|
F#---------------------------3~~~~-3~~-3-3-|
C#-----3--5----------3--5----3~~~~-3~~-3-3-|
G#---0---------1---0---------1~~~~-1~~-1-1-|
C#-0---------0---0---------0---------------|

Verse

Guitar 1
D#-----------------------------------------------|
A#-----------------------------------------------|
F#-----------------------------------------------|
C#-1-1----1-1-1-1-----1-3-1--0-0----0-0-0-0--0-0-|
G#-1-1----1-1-1-1-----1-3-1--0-0----0-0-0-0--0-0-|
C#-1-1----1-1-1-1-----1-3-1--0-0----0-0-0-0--0-0-|
Pm                    . . .

Guitar 1 continued
D#-------------------------------------------------------------|
A#-------------------------------------------------------------|
F#-------------------------------------------------------------|
C#-1-1----1-1-1-1-----1-3-1--0-0----0-0-0-0----1--1-3-1--1-3-1-|
G#-1-1----1-1-1-1-----1-3-1--0-0----0-0-0-0----1--1-3-1--1-3-1-|
C#-1-1----1-1-1-1-----1-3-1--0-0----0-0-0-0----1--1-3-1--1-3-1-|
Pm                    . . .                       . . .  . . .

Guitar 2
D#-----------------------------------|
A#-----------------------------------|
F#-8-8-8-8-8-8-8-8--7-7-7-7-7-7-7-7--|
C#-8-8-8-8-8-8-8-8--7-7-7-7-7-7-7-7--| x2
G#-6-6-6-6-6-6-6-6--5-5-5-5-5-5-5-5--|
C#-----------------------------------|

Pre Chorus

Guitar 1
D#--------------|
A#--------------|
F#--------------|
C#-0--0---------|
G#-0--0---------|
C#-0--0---------|

Guitar 2
D#----------------------|
A#----------------------|
F#-7-7-7-7b-7b-7b-7b-7--|b
C#-7-7-7-7b-7b-7b-7b-7--|b
G#-5-5-5-5b-5b-5b-5b-5--|b
C#----------------------|

Chorus x2

Guitar 1
D#-----------------------------------------------------------------|
A#-----------------------------------------------------------------|
F#---------------------------------12-12-12-12-12-12-12-12-6-6-6-6-|
C#-5-5-5-5-5-5-5-5-7-7-7-7-7-7-7-7-12-12-12-12-12-12-12-12-6-6-6-6-|
G#-5-5-5-5-5-5-5-5-7-7-7-7-7-7-7-7-10-10-10-10-10-10-10-10-4-4-4-4-|
C#-5-5-5-5-5-5-5-5-7-7-7-7-7-7-7-7---------------------------------|

Guitar 1 continued
D#------------------------------|
A#------------------------------|
F#-9-9-9--9-9-9--9-9-9--9-9-9-9-|
C#-9-9-9--9-9-9--9-9-9--9-9-9-9-|
G#-7-7-7--7-7-7--7-7-7--7-7-7-7-|
C#------------------------------|
Pm . .    . .    . .

Guitar 2
D#-------------------------------------------------------------------------|
A#-------------------------------------------------------------------------|
F#-12-12-12-12-12-12-15-15-15-14-14-14-14-14-14-14-14-14-12-12-12-12-12-12-|
C#-12-12-12-12-12-12-15-15-15-14-14-14-14-14-14-x--x--x--x--x--x--x--x--x--|
G#-10-10-10-10-10-10-13-13-13-12-12-12-12-12-12-12-12-12-10-10-10-10-10-10-|
C#-------------------------------------------------------------------------|

Guitar 2 continued
D#---------------------------------------------|
A#---------------------------------------------|
F#-7-7-7-6-6-6-6--9-9-9--9-9-9--9-9-9--9-9-9-9-|
C#-7-7-7-6-6-6-6--9-9-9--9-9-9--9-9-9--9-9-9-9-|
G#-5-5-5-4-4-4-4--7-7-7--7-7-7--7-7-7--7-7-7-7-|
C#---------------------------------------------|
Pm                . .    . .    . .

Breakdown 1

Guitar 1 & 2
D#------------------------------------------------------------------|
A#------------------------------------------------------------------|
F#------------------------------------------------------------------|
C#-7~-7-7-8~-8-8-5~~-5-5-5-8-5-8-5-5-5-5-5-5-8-5-8-5-5-5-5-5-8-5-8--| x2
G#-7~-7-7-8~-8-8-5~~-5-5-5-8-5-8-5-5-5-5-5-5-8-5-8-5-5-5-5-5-8-5-8--|
C#-7~-7-7-8~-8-8-5~~-5-5-5-8-5-8-5-5-5-5-5-5-8-5-8-5-5-5-5-5-8-5-8--|
Pm    . .    . .     . . .   .   . . . . . .   .   . . . . .   .

Guitar 1 & 2 continued
D#--------------------|
A#--------------------|
F#--------------------|
C#-7~-7-7-8~-8-8-5~~~-|
G#-7~-7-7-8~-8-8-5~~~-|
C#-7~-7-7-8~-8-8-5~~~-|
pm    . .    . . 

Breakdown 2

Guitar 1
D#------------------------------------------------------------|
A#------------------------------------------------------------|
F#-----------------------------------------5~-5-5-7~-7-7------|
C#-0-0--0---0----0--0---0--0---0-0--0---0--5~-5-5-7~-7-7-5~~--| x2
G#-0-0--0---0----0--0---0--0---0-0--0---0--3~-3-3-5~-5-5-5~~--|
C#-0-0--0---0----0--0---0--0---0-0--0---0----------------5~~--|
Pm                                            . .    . .
Guitar 2
D#-------------------------------------------------------------|
A#-------------------------------------------------------------|
F#-8\7/8\7/8\7/8\7---------------8\7/8\7/8\7/8\7---------------|
C#-8\7/8\7/8\7/8\7---------------8\7/8\7/8\7/8\7---------------|
G#-6\5/6\5/6\5/6\5---------------6\5/6\5/6\5/6\5---------------|
C#-------------------------------------------------------------|
Guitar 1
D#-----------------------------------------------------------|
A#-----------------------------------------------------------|
F#-----------------------------------------5~-5-5-7~-7-7-----|
C#-0-0--0---0----0--0---0--0---0-0--0---0--5~-5-5-7~-7-7-5~~-|
G#-0-0--0---0----0--0---0--0---0-0--0---0--3~-3-3-5~-5-5-5~~-|
C#-0-0--0---0----0--0---0--0---0-0--0---0----------------5~~-|
Pm                                            . .    . .

Guitar 1
D#-------------------------------------------------------------|
A#-------------------------------------------------------------|
F#-----------------------------------------------------7-7-7-7-|
C#-0-0--0---0----0--0---0--0---0-0--0---0--8~\0~-5~\0~-7-7-7-7-|
G#-0-0--0---0----0--0---0--0---0-0--0---0--8~\0~-5~\0~-7-7-7-7-|
C#-0-0--0---0----0--0---0--0---0-0--0---0--8~\0~-5~\0~-7-7-7-7-|

Chorus 2

Guitar 1
D#------------------------------------------------------------------|
A#------------------------------------------------------------------|
F#-----------------5-5-5-5-5-5-5-5----------------------------------|
C#-8-8-8-8-8-8-8-8-5-5-5-5-5-5-5-5-5-5-5-5-5-5-5-5-3-3-3-3-2-2-2-2--| x2
G#-8-8-8-8-8-8-8-8-3-3-3-3-3-3-3-3-5-5-5-5-5-5-5-5-3-3-3-3-2-2-2-2--|
C#-8-8-8-8-8-8-8-8-----------------5-5-5-5-5-5-5-5-3-3-3-3-2-2-2-2--|

Guitar 2
D#------------------------------------------------------------------|
A#------------------------------------------------------------------|
F#-7-7-7-7-7-7-7-7-5-5-5-5-5-5-5-5-7-7-7-7-7-7-7-7-5-5-5-5-5-5-5-5--|
C#-x-x-x-x-x-x-x-x-x-x-x-x-x-x-x-x-x-x-x-x-x-x-x-x-x-x-x-x-x-x-x-x--| x2
G#-5-5-5-5-5-5-5-5-3-3-3-3-3-3-3-3-5-5-5-5-5-5-5-5-3-3-3-3-3-3-3-3--|
C#------------------------------------------------------------------|

Guitar 1 & 2
D#--------------------------------------------|
A#--------------------------------------------|
F#--------------------------------------------|
C#-8--8--8--8--8--8--10--10--10--10--10--10\0-|
G#-8--8--8--8--8--8--10--10--10--10--10--10\0-|
C#-8--8--8--8--8--8--10--10--10--10--10--10\0-|

Breakdown 3

Guitar 1 & 2
D#---------------------------------------------------------|
A#---------------------------------------------------------|
F#---------------------------------------------------------|
C#----------------------------------------------------3--5-|
G#----3--5------3--5----------3--5------3--5--------0------|
C#-0--------0-2-------0-3p0-2-------0-2-------0-3p0--------|

Guitar 1 & 2
D#-----------------------------------------|
A#-----------------------------------------|
F#---------------------------3~~~~-3~~-3-3-|
C#-----3--5----------3--5----3~~~~-3~~-3-3-|
G#---0---------1---0---------1~~~~-1~~-1-1-|
C#-0---------0---0---------0---------------|

Interlude 1

Guitar 1
D#---------------------------------------------------|
A#---------------------------------------------------|
F#---------------------------------------------------|
C#-0~~~~~~~-0--0~~~~~~~-0--8~~~~~~~-8--10~~~~~~~-10--| x2
G#-0~~~~~~~-0--0~~~~~~~-0--8~~~~~~~-8--10~~~~~~~-10--|
C#-0~~~~~~~-0--0~~~~~~~-0--8~~~~~~~-8--10~~~~~~~-10--|

Guitar 2
D#--------------------------------------|
A#--------------------------------------|
F#------------------------3~-2p0--------|
C#---5-3~-2~--------5-3-2--------3-3~~~-| x2
G#-----------3h5~~~---------------------|
C#--------------------------------------|

Guitar 1
D#-------------------------------------------------------------------------|
A#-------------------------------------------------------------------------|
F#-------------------------------------------------------------------------|
C#-8-8-8-8-8-8-8-8-10-10-10-10-10-10-10-10-0-0-0-0-0-0-0-0-2-0-2-3-3-3-3-3-|
G#-8-8-8-8-8-8-8-8-10-10-10-10-10-10-10-10-0-0-0-0-0-0-0-0-2-0-2-3-3-3-3-3-|
C#-8-8-8-8-8-8-8-8-10-10-10-10-10-10-10-10-0-0-0-0-0-0-0-0-2-0-2-3-3-3-3-3-|
Pm . . . .   .   . .  .  .  .     .     .  . . . . . . . . . . . . . . . .

Guitar 2
D#---------------------------------------------------------------------------|
A#---------------------------------------------------------------------------|
F#-6-7-7-7-7-7-7-7-6-7-7-7-7-7-7-7-6-7-9-10-10-10-10-10-6-7-9-10-10-10-10-10-|
C#---------------------------------------------------------------------------|
G#---------------------------------------------------------------------------|
C#---------------------------------------------------------------------------|

Guitar 1
D#-------------------------------------------------------------------------|
A#-------------------------------------------------------------------------|
F#-------------------------------------------------------------------------|
C#-8-8-8-8-8-8-8-8-10-10-10-10-10-10-10-10-0-0-0-0-0-0-0-0-2-0-2-3-3-3-3-3-|
G#-8-8-8-8-8-8-8-8-10-10-10-10-10-10-10-10-0-0-0-0-0-0-0-0-2-0-2-3-3-3-3-3-|
C#-8-8-8-8-8-8-8-8-10-10-10-10-10-10-10-10-0-0-0-0-0-0-0-0-2-0-2-3-3-3-3-3-|
Pm . . . .   .   . .  .  .  .     .     .  . . . . . . . . . . . . .

Guitar 2
D#---------------------------------------------------------------------------|
A#---------------------------------------------------------------------------|
F#-6-7-7-7-7-7-7-7-6-7-7-7-7-7-7-7-6-7-9-10-10-10-10-10-6-7-9-10-10-10-10-10-|
C#---------------------------------------------------------------------------|
G#---------------------------------------------------------------------------|
C#---------------------------------------------------------------------------|

Interlude 2 x2

Guitar 1
D#-------------------------------------------------|
A#-------------------------------------------------|
F#-3-3-3-3-3-3-3-3-5-5-5-5-5-5-5-5-----------------|
C#-3-3-3-3-3-3-3-3-5-5-5-5-5-5-5-5-0-0-0-0-0-0-0-0-|
G#-1-1-1-1-1-1-1-1-3-3-3-3-3-3-3-3-0-0-0-0-0-0-0-0-|
C#---------------------------------0-0-0-0-0-0-0-0-|

Guitar 1 continued
D#-------------------------------------------|
A#-------------------------------------------|
F#-------------------------------------------|
C#-3--3--3--3--3--3--2--2--2--2--2--2--2---2-|
G#-3--3--3--3--3--3--2--2--2--2--2--2--2---2-|
C#-3--3--3--3--3--3--2--2--2--2--2--2--2---2-|

Guitar 2
D#------------------------------------------------------------|
A#------------------------------------------------------------|
F#-7-7-7-7-7-7-7-7-10-10-10-10-9-9-9-9----------------7-7-7-7-|
C#-x-x-x-x-x-x-x-x-x--x--x--x--x-x-x-x----------------x-x-x-x-|
G#-5-5-5-5-5-5-5-5-8--8--8--8--7-7-7-7--5-7-8--5-7-8--5-5-5-5-|
C#------------------------------------------------------------|

Guitar 2 continued
D#-------------------------------------------------|
A#-------------------------------------------------|
F#-10--10--10--10--10--10--9--9--9--9--9--9--9---9-|
C#-x---x---x---x---x---x---x--x--x--x--x--x--x---x-|
G#-8---8---8---8---8---8---7--7--7--7--7--7--7---7-|
C#-------------------------------------------------|

Outro

Guitar 1 & 2
D#------------------------------------------------------------|
A#------------------------------------------------------------|
F#------------------------------------------------------------|
C#-0----0--0---0--0----0--0---0--0----0--0--------------------| x4
G#-0----0--0---0--0----0--0---0--0----0--0--------------------|
C#-0----0--0---0--0----0--0---0--0----0--0----0-0-3---0--5b~--|

Guitar 1 & 2
D#----------------------------------------------------------|
A#----------------------------------------------------------|
F#----------------------------------------------------------|
C#-0~~~~~~~~~~~~~~~~~~~~~~~~~~~~~~~~~~~~~~~~~~~~~~~~~~~~~~~~|
G#-0~~~~~~~~~~~~~~~~~~~~~~~~~~~~~~~~~~~~~~~~~~~~~~~~~~~~~~~~|
C#-0~~~~~~~~~~~~~~~~~~~~~~~~~~~~~~~~~~~~~~~~~~~~~~~~~~~~~~~~|

Tab Legend
h  -  hammer-on
p  -  pull-off
/  -  slide up
\  -  slide down
ps/-  pickslide up
ps\-  pickslide down
~  -  let ring
pm.-  palm mute
b  -  bend
r  -  return from bend
*  -  harmonic

There you have it, another tab for Akissforjersey. If you have any problems with this
just tell me and I will try to fix it as best as I can. If you want to make a tab better
this, I would like that because it shows me what I did wrong so that I can improve. Also 
to... ROCK OUT!!!!

            
            
Suggest correction
Creating personal tab
Creating personal tab
You can edit any tab online and save it as your Personal.

You can edit, replace or remove any tab part or add personal notes – all changes will be seen only by you.

Personal tabs can be accessed anytime from any device, even offline.
Learn more »
Give kudos to tab author, rate the tab!
1 2 3 4 5
comments
print report bad tab
guest
You may want to rate the tab now too:
select rating
Wanna post a correction for this tab? Suggest correction