Oops, an error
Loading. Please wait.

On The Border bass

version 1
version 1

Whole song

Interactive

2,824 views 3 this week
2 commentsread comments
1 2 3 4 5
x 3
add to favorites
×
Save as Personal and add changes to this tab that will be seen only by you. Learn more ›
×
You can save this tab as Personal to edit and correct it or add notes. All changes will be seen only by you. Learn more »
launch autoscroll
font size
0
reset
guitar tuner
backing track
0:00
0:00
edit
Autoscroll
slow
fast
+/-
esc
set tempo
stop
Author
On the Border
Al Stewart 
Bass Tab
Bassist: George Ford

196BPM, 4/4

Intro
                                       3x
||----------|---------|---------|------||
||o---------|---------|---------|-----o||
||o---------|---------|---------|-----o||
||----------|---------|---------|------||

|---------|---------|---------|----------|
|---------|---------|---------|----------|
|---------|---------|---------|--------4-|
|---------|---------|---------|----------|

||-----------|--------------|----------|---------------||
||o-4--------|-6-4----------|-4--------|-6-4----------o||
||o----------|------4--4--4-|----------|------4----4--o||
||-----------|--------------|----------|---------------||

Verse

|----------|--------------|----------|-------------|
|-4--------|-6-4----------|-4--------|-6-4---------|
|----------|------4--4--4-|----------|------4------|
|----------|--------------|----------|-----------5-|

|----------|--------------|----------|-------------|
|----------|-4------------|----------|-4-----------|
|-5--------|---7--5--5----|-5--------|---7--5------|
|----------|------------5-|----------|-----------2-|

|----------|--------------|-----------|-----------|
|----------|-4-2----------|-----------|-----------|
|-2--------|------2--2--x-|-----------|-----------|
|----------|--------------|-5-------5-|-3-------3-|

|-----------|-----------|
|-----------|-----------|
|-----------|---------4-|
|-2-------2-|-0---------|

||-----------|--------------|----------|---------------||
||o-4--------|-6-4----------|-4--------|-6-4----------o||
||o----------|------4--4--4-|----------|------4----4--o||
||-----------|--------------|----------|---------------||

|----------|--------------|----------|-------------|
|-4--------|-6-4----------|-4--------|-6-4---------|
|----------|------4--4--4-|----------|------4------|
|----------|--------------|----------|-----------5-|

|----------|--------------|----------|-------------|
|----------|-4------------|----------|-4-----------|
|-5--------|---7--5--5----|-5--------|---7--5------|
|----------|------------5-|----------|-----------2-|

|----------|--------------|-----------|-----------|
|----------|-4-2----------|-----------|-----------|
|-2--------|------2--2--x-|-----------|-----------|
|----------|--------------|-5-------5-|-3-------3-|

|-----------|-----------|
|-----------|-----------|
|-----------|---------4-|
|-2-------2-|-0---------|

|----------|--------------|----------|------------|
|-4--------|-6-4----------|-4--------|-6-4--------|
|----------|------4--4--4-|----------|------4-----|
|----------|--------------|----------|------------|

Bridge

|-------------|-------------|-------------|-------------|
|-------------|-------------|-2-----------|-2-----------|
|-------------|-------2h4h5-|-------2h4h5-|-------0h2h4-|
|-5-----0h2h3-|-5-----------|-------------|-------------|

|-------------|------------|-------------|------|
|-------------|------------|-------------|------|
|-5-----0h2h4-|-5-----5h7--|-------------|------|
|-------------|------------|-5-----0h2h3-|-5----|

|-------------|------------|----------|------|
|-------------|------------|----------|------|
|-5-----0h2h4-|-5-----0h2--|-4--------|-4----|
|-------------|------------|----------|------|

|---------------|-------------|
|---------------|-------------|
|-4-4--2-2------|-------------|
|-----------5-5-|--4-4--2--0--|

||-------------|--------------|------------|----------------||
||o---------4--|-/6---4--x----|---------4--|-/6---4--x-----o||
||o-------4----|-----------4--|-------4----|-----------4---o||
||--2----------|--------------|-2----------|----------------||

Verse

|------------|-------------|-------------|--------------|
|---------4--|-/6---4------|---------4-x-|-/6---4--x----|
|-------4----|----------4--|-------4-----|-----------4--|
|-2----------|-------------|-2-----------|--------------|

|-----------|------------|-------------|------------|
|-----------|-4----------|-------------|-4----------|
|-5---------|-----7------|-5-------5---|-----7------|
|--------5--|---------5--|-------5---5-|---------5--|

|------------|------------|-------------|-------------|
|------------|-4---2------|---------7---|---------5---|
|-2-------2--|---------2--|-------7---7-|-------5---5-|
|-------2----|------------|-5-----------|-3-----------|

|----------|-------------|-----------|------------|
|----------|---------2---|-4---------|-6---4------|
|----------|-------2---2-|--------4--|---------4--|
|-2--------|-0-----------|-----------|------------|

|-----------|------------|
|-----------|-6---4------|
|--------4--|---------4--|
|-2---------|------------|

Bridge

|-------------|-------------|-------------|-------------|
|-------------|-------------|-2-----------|-2-----------|
|-------------|-------2h4h5-|-------2h4h5-|-------0h2h4-|
|-5-----0h2h3-|-5-----------|-------------|-------------|

|-------------|------------|-------------|-------------|
|-------------|------------|-------------|-------------|
|-5-----0h2h4-|-5-----5h7--|-------------|-------0h2h4-|
|-------------|------------|-5-----0h2h3-|-5-----------|

|-------------|-------------|------------|------|
|-------------|-------------|------------|------|
|-5-----0h2h4-|-5-----0h2p0-|-4-----4--4-|-4----|
|-------------|-------------|------------|------|

|---------------|-------------|
|---------------|-------------|
|-4-4--2-2------|-------------|
|-----------5-5-|--4-4--2--0--|

||--------------|--------------|-------------|----------------||
||o---------4-x-|-/6---4--x----|---------4-x-|-/6---4--x-----o||
||o-------4-----|-----------4--|-------4-----|-----------4---o||
||--2-----------|--------------|-2-----------|----------------||

Verse and Ending

|------------|--------------|-------------|--------------|
|---------4--|-/6---4--x----|---------4-x-|-/6---4--x----|
|-------4----|-----------4--|-------4-----|-----------4--|
|-2----------|--------------|-2-----------|--------------|

|-------------|------------|-------------|------------|
|-------------|-4----------|-------------|-4----------|
|-5-------5-x-|-----7------|-5-------5---|-----7---5--|
|-------5-----|---------5--|-------5---5-|------------|

|----------|------------|-------------|-------------|
|----------|-4---2------|-------7-----|-------5-----|
|-2--------|---------5--|---------7---|---------5---|
|----------|------------|-5---------5-|-3---------3-|

|-----------|-------------|--------------|--------------|
|-----------|---------2---|-/4-------4-x-|-/6---4--x----|
|-----------|-------2---2-|--------4-----|-----------4--|
|-2------2--|-0-----------|--------------|--------------|

||--------------|--------------|-------------|-------------|
||o---------4-x-|-/6---4--x----|-------------|-4-----------|
||o-------4-----|-----------4--|-5-------5-x-|-----7-------|
||--2-----------|--------------|-------5-----|---------5---|

|-------------|------------|-------------|---------------||
|-------------|-4----------|---------4-x-|-/6---4--x----o||
|-5-------5-x-|-----7---5--|-------4-----|-----------4--o||
|-------5-----|------------|-2-----------|---------------||

|------------|--------------|------------|--------------|
|---------4--|-/6---4--x----|---------4--|-/6---4--x----|
|-------4----|-----------4--|-------4----|-----------4--|
|-2----------|--------------|-2----------|--------------| &fade

            
            
Suggest correction
Creating personal tab
Creating personal tab
You can edit any tab online and save it as your Personal.

You can edit, replace or remove any tab part or add personal notes – all changes will be seen only by you.

Personal tabs can be accessed anytime from any device, even offline.
Learn more »
Give kudos to tab author, rate the tab!
1 2 3 4 5
comments
print report bad tab
2 comments total.
0 reply
smilebruce 20 Mar 16, 2010 07:06 PM

Thanks so much for an Al Stewart bass tab! BC

0 reply
ayreon77 21,833 Apr 11, 2015 04:42 PM

yea pretty good bass tab for it.

guest
You may want to rate the tab now too:
select rating
Wanna post a correction for this tab? Suggest correction