Oops, an error
Loading. Please wait.

Year Of The Cat bass

version 1
version 1

Whole song

Interactive

1,703 views 12 this week
no commentswrite comment
1 2 3 4 5
x 4
add to favorites
×
Save as Personal and add changes to this tab that will be seen only by you. Learn more ›
×
You can save this tab as Personal to edit and correct it or add notes. All changes will be seen only by you. Learn more »
launch autoscroll
font size
0
reset
guitar tuner
backing track
0:00
0:00
edit
Autoscroll
slow
fast
+/-
esc
set tempo
stop
Author
Year of the Cat
Al Stewart
Bass Tab
Bass: George Ford

116BPM, 4/4

Intro
                                           4x
||----------|---------|---------|----------||
||o---------|---------|---------|---------o||
||o---------|---------|---------|---------o||
||----------|---------|---------|----------||

|-------------|-------------|------------|------------|
|-5---5-5-----|-----------34|-5---5-5----|------------|
|-----------5-|-3---3-3-----|------------|-3---3-3----|
|-------------|-------------|------------|------------|

|-------------|------------|-----------56|-7----------|
|-2-----2-----|------------|-------------|------------|
|-----2----2--|------------|-5---5-5-----|---------5--|
|-------------|-5---5-5----|-------------|-------5----|

|-------------|-------------|-------------|---------------|
|-----------2-|-2-----------|-----------2-|-2-------------|
|-3---3-5-----|----2-----2--|-3---3-5-----|-----2---------|
|-------------|------0------|-------------|-------0-2-3-5-|

|-------------|--------------|-------------|-------------|
|-----------2-|-2------------|-------------|-------------|
|-3---3-5-----|-----2--------|-----------7-|-5---5-5---x-|
|-------------|-------0--0-2-|-5---5-5-----|-------------|

Verse

|-------------|---------------|--------------|---------------|
|-----------2-|-2-------------|------------x-|-2-------------|
|-3---3-2-----|-----2---------|-3---3-x-2----|-----2---------|
|-------------|-------0-2-3-5-|--------------|-------0-2-3-5-|

|-------------|--------------|-------------|-----7-7------|
|-----------2-|-2-----2------|-----567-----|----------7---|
|-3---3-2-----|-----2----2---|-----------7-|-5----------5-|
|-------------|------------0-|-5-----------|--------------|

|-------------|--------------|-------------|-------------|
|-----------2-|-2------------|-------------|-------------|
|-3---3-2-----|-----2------0-|-2---2-2---x-|-3---3-3---2-|
|-------------|-------0--2---|-------------|-------------|

|---5---------4---|-----------------|-------------|----567-------|
|-----5-----4---4-|-2---------------|-------------|---------7----|
|-3-----3-2-------|---2-------------|-----------34|-5---------5--|
|-----------------|-----0-0-0-2-3-4-|-5---5-5-----|--------------|

Chorus

|-------------|---------------|-------------|--------------|
|-------------|-2-------------|-------------|-2------------|
|-3---3-5---5-|----2----------|-3---3-5---5-|-----2--------|
|-------------|------0-0--3-5-|-------------|-------0--3-5-|

|-------------|---------------|-------------|------7-7------|
|-------------|-2-------------|-------------|-----------7---|
|-3---3-5---5-|----2----------|-----------x-|-5-5---------5-|
|-------------|------0-0--2-3-|-5---5-5-----|---------------|

Verse

|-------------|---------------|-------------|---------------|
|-----------2-|-2-------------|-----------2-|-2-------------|
|-3---3-2-----|-----2---------|-3---3-2-----|-----2---------|
|-------------|-------0-2-3-5-|-------------|-------0-2-3-5-|

|-------------|----------------|--------------|-----7-7------|
|-------------|-2--------------|-----457--7---|----------7---|
|-3---3-2---2-|----2-----------|------------7-|-5----------5-|
|-------------|------0-0-2-3-4-|-5------------|--------------|

|-------------|---------------|-------------|-------------|
|-----------2-|-2-------------|-------------|-------------|
|-3---3-2-----|-----2---------|-2---2-2---2-|-3---3-3---3-|
|-------------|-------0-2-3-5-|-------------|-------------|

|---5---------4---|---------------|-------------|------7-7------|
|-----5-----4---4-|-2-------------|-------------|-----------7---|
|-3-----3-2-------|---2-----------|-------------|-5-5---------5-|
|-----------------|-----0---2-3-4-|-5---5-5---5-|---------------|

Chorus

|-------------|---------------|-------------|---------------|
|-----------2-|-2-------------|-------------|-2-------------|
|-3---3-5-----|-----2---------|-3---3-5---5-|-----2---------|
|-------------|-------0-2-3-5-|-------------|-------0-2-3-5-|

|-------------|---------------|--------------|-----457------|
|-------------|-2-------------|-----457------|----------7---|
|-3---3-5---5-|-----2---------|----------7---|-5----------5-|
|-------------|-------0-2-3-4-|-5----------5-|--------------|

Bridge

|-----4-4-----|--------5------|--------------|-------------|
|-------------|------5----5---|-----345------|-----7-7-----|
|-2---------2-|-3--x--------3-|----------5---|-5--------5--|
|-------------|---------------|-3----------3-|-------------|

|-------4------|-------------|-------------|-------------|
|-----4----4---|-----5-5-----|-5-----------|-3---3-2---2-|
|-2----------2-|-3--------3--|-----5----5--|-------------|
|--------------|-------------|-------3-----|-------------|

|----7----------|----------|
|---------------|----------|
|-5----5-5-5----|-5--------|
|-------------5-|----------|

Chorus

|-------------|---------------|-------------|---------------|
|-------------|-2-------------|-------------|-2-------------|
|-3---3-5---5-|-----2---------|-3---3-5---5-|---2-----------|
|-------------|-------0-2-3-5-|-------------|-----0---2-3-5-|

|-------------|---------------|-------------|----7----7-----|
|-------------|-2-------------|-----457-----|------7----7---|
|-3---3-5---5-|-----2---------|-----------7-|-5-----------5-|
|-------------|-------0-2-3-4-|-5-----------|---------------|

Solo

|-------------|---------------|-------------|---------------|
|-------------|-2-------------|-------------|-2-------------|
|-3---3-5---5-|-----2---------|-3---3-5---5-|-----2---------|
|-------------|-------0-2-3-5-|-------------|-------0-2-3-5-|

|-------------|----------------|--------------|----------------|
|-------------|-2--------------|-----457------|----------------|
|-3---3-5---5-|----2-----------|----------7---|-5-5-5-5-5------|
|-------------|------0-0-2-3-4-|-5----------5-|------------5-0-|

|--------------|--------------|--------------|-------------|
|--------------|--------------|--------------|-----5-5-----|
|------------2-|-3---333--3---|------------2-|-3--------3--|
|-3---3-3--5---|------------0-|-3---3-3--5---|-------------|

|---------------|--------------|-----------------|-----------7-7-7-|
|-2---222-2-----|-------7------|-----------------|-----------------|
|-----------2---|-----7----7---|-5-5-5---5-5-5---|-5-5-5---5-------|
|-------------0-|-5----------5-|-------5-------5-|-------5---------|

|-------------|--------------|--------------|--------------|
|-------------|--x-5--5-5----|--------------|----5---------|
|-5--5--5-----|------------5-|--5-5--5-5----|------------2-|
|-----------3-|--------------|------------3-|--3----3-3----|

|---------------|--------------|---------------|---------|
|---------------|--------------|---------------|---------|
|--2-2--2-x-5-6-|--6-6--6-6--7-|--7-7--7-7-7---|---------|
|---------------|--------------|-------------5-|---------|

|---------|
|---------|
|---------|
|---------|

|-------------|---------------|-------------|----------------|
|-----------2-|-2-------------|-----------2-|-2------2-------|
|-3---3-5-----|---2-----------|-3---3-5-----|---2------------|
|-------------|-----0---2-3-5-|-------------|-----0----2-3-5-|

|-------------|---------------|--------------|----457-------|
|-----------2-|-2-------------|-----457------|---------7----|
|-3---3-5-----|---2-----------|----------7---|-5---------5--|
|-------------|-----0---2-3-4-|-5----------5-|--------------|

Verse

|-------------|--------------|-------------|--------------|
|-----------2-|--------------|-----------2-|--------------|
|-3---3-2-----|--2-----------|-3---3-2-----|--2-----------|
|-------------|----0---2-3-5-|-------------|----0---2-3-5-|

|-------------|---------------|--------------|----457--------|
|-----------0-|-2-------------|-----5-7------|--------7------|
|-3---3-2-----|---2-----------|----------7---|-5----------5--|
|-------------|------0--2-3-4-|-5----------5-|----------5----|

|------------|-------------|-------------|-------------|
|------------|-2-----------|-------------|-------------|
|-3---3-2----|---2-------0-|-2---2-2---2-|-3---3-3---2-|
|------------|-----0-------|-------------|-------------|

|---5-------4-----|----------------|-------------|-----457------|
|-----5-------4---|-2--------------|-------------|---------7----|
|-3-----3-2-----2-|---2------------|-------------|-5---------5--|
|-----------------|-----0--0-2-3-4-|-5---5-5---5-|--------------|

Chorus

|-------------|---------------|-------------|---------------|
|-------------|-2-------------|-----------2-|-2-------------|
|-3---3-5---5-|---2-----------|-3---3-5-----|-----2---------|
|-------------|-----0---2-3-5-|-------------|-------0-2-3-5-|

|-------------|---------------|-------------|----7-7-7--7---|
|-------------|-2-------------|-----457-----|---------------|
|-3---3-5---5-|----2----------|-----------7-|-5-----------5-|
|-------------|------0--2-3-4-|-5-----------|---------------|

|---------------|--------------|-------------|---------------|
|---------------|-2------------|-------------|-2-------------|
|-3--3-3-5-5--5-|-----2--------|-3---3-5---5-|-----2---------|
|---------------|-------0-2--5-|-------------|-------0-2-3-5-|

|-------------|----------------|---------------|--------------|
|-----------2-|-2--------------|----7-457------|--------------|
|-3---3-5-----|----2-----------|-----------7---|-5---5-5--5---|
|-------------|------0-0-2-3-4-|-5-----------5-|------------x-|

Ending

|-------------|-----5-5------|-------------|-------------|
|-------------|----------5---|-------------|-------------|
|-----------2-|-3----------3-|-----------2-|-3---3-3---5-|
|-3---3-3-----|--------------|-3---3-3-----|-------------|

|--------------|-------------|-----457------|--------------|
|-2-----2------|-----457-----|----------7---|-----7--------|
|-----2----2---|----------7--|-5------------|-5------5-5---|
|------------0-|-5-----------|------------5-|------------3-|

|-------------|---------------|--------------|---------------|
|-------------|-2-------------|--------------|-2-------------|
|-3---3-5---5-|---2-----------|-3---3-5--3-5-|---2-----------|
|-------------|-----0---2-3-5-|--------------|-----0---2-3-5-|

|-------------|--------------|--------------|------7--------|
|-------------|-2-----2------|-----457------|----x---7------|
|-3---3-5---5-|-----2----2---|----------7---|-5----------5--|
|-------------|------------0-|-5----------5-|----------5----|

|----------7---|---------------|-------------|---------------|
|--------------|-2-------------|-------------|-2-------------|
|-3---3-5----5-|---2-----------|-3---3-5---5-|-----2---------|
|--------------|-----0---2-3-5-|-------------|-------0-2-3-5-|

|--------------|--------------|-------------|-----457------|
|--------------|-2---2-2------|-----457-----|----------7---|
|-3---3-5--3-5-|----------2---|----------7--|-5----------5-|
|--------------|------------0-|-5-----------|--------------|

|-------------|--------------|-------------|--------------*|
|-----------2-|--------------|-----------2-|-2------------*|
|-3---3-5-----|-2------------|-3---3-5-----|---2----------*|
|-------------|---0--2-3--5--|-------------|-----0--2-3-5-*| fade

            
            
Suggest correction
Creating personal tab
Creating personal tab
You can edit any tab online and save it as your Personal.

You can edit, replace or remove any tab part or add personal notes – all changes will be seen only by you.

Personal tabs can be accessed anytime from any device, even offline.
Learn more »
comments
print report bad tab
guest
You may want to rate the tab now too:
select rating
Wanna post a correction for this tab? Suggest correction