Oops, an error
Loading. Please wait.

Blow Me Away bass

version 1
version 1

Whole song

Interactive

4,230 views 6 this week
no commentswrite comment
1 2 3 4 5
x 3
add to favorites
×
Save as Personal and add changes to this tab that will be seen only by you. Learn more ›
×
You can save this tab as Personal to edit and correct it or add notes. All changes will be seen only by you. Learn more »
launch autoscroll
font size
0
reset
guitar tuner
edit
Autoscroll
slow
fast
+/-
esc
set tempo
stop
Author
-------------------------------------------------------------------------------
			     Blow me Away - Alain Clark
-------------------------------------------------------------------------------

Tabbed By : bassbuzz
Tuning: normal tuning (EADG)

Hey, this is my tab for Alain Clark's Blow me Away. I think it's 99% correct. Enjoy!

intro:
G|--------------------------|----------------------|
D|----9--9-7-9-7------------|-9-9-7-9-7------------|
A|---------------9-7--7-7-9-|-----------9-7--7-7-9-|
E|-14\7---------------------|-7--------------------|

verse1:
G|----------------------|X4|
D|-9-9-7-9-7------------|X4|
A|-----------9-7--7-7-9-|X4|
E|-7--------------------|X4|

G|------7-----------------------------------------------------------------| 
D|------------------------------------------------------------------------|
A|-5-5----5-5--5-7-10-10-----10-10----------------------999999999-9-/21\7-|
E|------------------------10--------10-12-8-8--8-9-9--9-------------------|
Slide to fret 21 and back to 7, if you don't have 22 or more frets slide to 16 and back to 7.

chorus:
G|----------------------|X4|-----|
D|-9-9-7-9-7------------|X4|-----|
A|-----------9-7--7-7-9-|X4|-----|
E|-7--------------------|X4|--7--|last time play this as extension

verse2:
G|----------------------|-----------------------|
D|-9-9-7-9-7------------|-9-9-7-9-7-------------|
A|-----------9-7--7-7-9-|-----------9-7--7-7-5^-|
E|-7--------------------|-7---------------------|

G|----------------------|X2|
D|-9-9-7-9-7------------|X2|
A|-----------9-7--7-7-9-|X2|
E|-7--------------------|X2|

G|------7------9-7-----------------------------------------------------| 
D|---------------------------------------------------------------------|
A|-5-5----5-5------10-10--------10-10----------------999999999-9-/21\7-|
E|------------------------10-12-------8-8--8-9-9--9--------------------|

chorus:
G|----------------------|X8|
D|-9-9-7-9-7------------|X8|
A|-----------9-7--7-7-9-|X8|
E|-7--------------------|X8|

bridge:
G|-0-----------------------------------------------------------6--------6-----|
D|----4-----4---------------------2----------2--------2-------------------6---|
A|-------4------0-2--2-0-2-0------------------------------4-4----4-4-4------7-|
E|------------2--------------2-0----2-0-0-0----0-0-0----0---------------------|

G|------------------------------9h10p9-7---------|
D|---------------------------------------9-7-----|
A|-3-3----3-3-3----3-5-5-5-5-5---------------9-7-|
E|------3--------3-------------------------------|

chorus:
G|----------------------|----------------------|----------------------|----------------------|
D|-9-9-7-9-7------------|-9-9-7-9-7------------|-9-9-7-9-7------------|-9-9-7-9-7------------|
A|-----------9-7--7-7-9-|-----------9-7------9-|-----------9-7--7-7-9-|-----------9-7------9-|
E|-7--------------------|-7--------------0-0---|-7--------------------|-7-------------0-0-7--|

outro:
G|----------------------|----------------------|----------------------|----------------------|
D|-9-9-7-9-7------------|-9-9-7-9-7------------|-9-9-7-9-7------------|-9-9-7-9-7------------|
A|-----------9-7--7-7-9-|-----------9-7------9-|-----------9-7--7-7-9-|-----------9-7------9-|
E|-7--------------------|-7--------------0-0---|-7--------------------|-7--------------0-0---|



| ^  bend
| /  slide up
| \  slide down
| h  hammer-on
| p  pull-off
| ~  vibrato
| +  harmonic
| x  Mute note
===============================================================================

            
            
Suggest correction
Creating personal tab
Creating personal tab
You can edit any tab online and save it as your Personal.

You can edit, replace or remove any tab part or add personal notes – all changes will be seen only by you.

Personal tabs can be accessed anytime from any device, even offline.
Learn more »
Give kudos to tab author, rate the tab!
1 2 3 4 5
comments
print report bad tab
guest
You may want to rate the tab now too:
select rating
Wanna post a correction for this tab? Suggest correction