Oops, an error
Loading. Please wait.

Good Time intro tab

version 2
version 2

Intro

Whole song

6,511 views 6 this week
3 commentsread comments
1 2 3 4 5
1 last vote to show rating
add to favorites
×
Save as Personal and add changes to this tab that will be seen only by you. Learn more ›
×
You can save this tab as Personal to edit and correct it or add notes. All changes will be seen only by you. Learn more »
launch autoscroll
font size
0
reset
how to read this tab
guitar tuner
backing track
0:00
0:00
edit
Autoscroll
slow
fast
+/-
esc
set tempo
stop
Difficulty
The other version is way off. Pick Near bridge


e|-------------------------------------------------------------------------|
B|-------------------------------------------------------------------------|
G|-------------------------------------------------------------------------|
D|-------0-0--------0-0-------0-0------------------------------------------|
A|---4h5------4h5------4h5-----------2p0-----------------------------------|
E|----------------------------------------3-0-3----------------------------|


e|-------------------------------------------------------------------------|
B|-------------------------------------------------------------------------|
G|-------------------------------------------------------------------------|
D|-------0-0--------0-0-------0-0------------------------------------------|
A|---4h5------4h5------4h5-----------2p0-----------------------------------|
E|----------------------------------------3-0-3----------------------------|

e|-------------------------------------------------------------------------|
B|-------------------------------------------------------------------------|
G|-------------------------------------------------------------------------|
D|-------0-0--------0-0-------0-0------------------------------------------|
A|---4h5------4h5------4h5-----------2p0-----------------------------------|
E|----------------------------------------3-0-3----------------------------|

e|-------------------------------------------------------------------------|
B|-------------------------------------------------------------------------|
G|-------------------------------------------------------------------------|
D|-------0-0--------0-0-------0-0------------------------------------------|
A|---4h5------4h5------4h5-----------2p0-----------------------------------|
E|----------------------------------------3-0-3-0--------------------------|

            
            
Suggest correction
Creating personal tab
Creating personal tab
You can edit any tab online and save it as your Personal.

You can edit, replace or remove any tab part or add personal notes – all changes will be seen only by you.

Personal tabs can be accessed anytime from any device, even offline.
Learn more »
Give kudos to tab author, rate the tab!
1 2 3 4 5
comments
print report bad tab
3 comments total.
0 reply
Gable_Brandon 242 Jan 12, 2009 08:41 AM

Not right. It's a bend not a slide or hammer on. Doesn't have the very first part.

0 reply
William-M 15 Jan 20, 2009 07:18 PM

Riff 1:

e|-----------------------------------------------------------------|
B|-----------------------------------------------------------------|
G|-----------------------------------------------------------------|
D|-------0-0--------0-0-------0-0----------------------------------|
A|---4h5------4h5------4h5-----------2p0----0----------------------|
E|----------------------------------------3----3-------------------|

Riff 2:

e|-----------------------------------------------------------------|
B|-----------------------------------------------------------------|
G|-----------------------------------------------------------------|
D|-------0-0--------0-0-------0-0----------------------------------|
A|---4h5------4h5------4h5-----------2p0----0----------------------|
E|----------------------------------------3----3--0-----------------|

0 reply
William-M 15 Jan 20, 2009 07:19 PM

play riff 1 3 times then riff 2 once, thats the intro, we'll thats what it sounds like to me.

guest
Wanna post a correction for this tab? Suggest correction