Oops, an error
Loading. Please wait.

Black Velver bass

1,454 views 3 this week
no commentswrite comment
1 2 3 4 5
3 more votes to show rating
add to favorites
×
Save as Personal and add changes to this tab that will be seen only by you. Learn more ›
×
You can save this tab as Personal to edit and correct it or add notes. All changes will be seen only by you. Learn more »
launch autoscroll
font size
0
reset
guitar tuner
edit
Autoscroll
slow
fast
+/-
esc
set tempo
stop
Author
Black Velvet Bass Tab (ver 4) by Alannah Myles

Artist: Alannah Myles
Song: Black Velvet

BASSLINE FOR BLACK VELVET - As recorded by Alanah Myles

Transcribed by Michael Raisey - gemini67@globalfreeway.com.au
Edited for 5-string Bass by Robert v. Beilen
Revised and editing by Mark Nolasco 25-08-2009
Minor corrections and clarification for reading by Lance Eames 15-06-2013
Standard 5 String tuning: B-E-A-D-G


|------|----------------|----------------|----------------|------------------|
|------|----------------|----------------|----------------|------------------|
|-4----|----------------|----------------|----------------|------------4-----|
|---6-4|----------------|------------4--2|----------------|--------------6-4-|
|------|4-4-4-4-4-4-4-4-|4-4-4-4-4-4--4--|4-4-4-4-4-4-4-4-|4-4-4-4-4-4-------|
  4 + a                                   1  +  2 + 3 + 4  + a
//
||-----------------|----------------|----------------|-----------------------|
||o----------------|----------------|----------------|----4-----3------------|
||o----------------|----------------|----------------|------4-----4---4---4--|
||-----------------|-----------4--2-|----------------|--------6-----6---6----|
||4-4-4-4-4-4-4-4-|4-4-4-4-4-4---4--|4-4-4-4-4-4-4-4-|4-4--------------------|
   Mmmmmm                      4 + a                  1 + 2 + a 3 + a 4 + a

|-----------------|---------------|----------------|------------------|
|-----------------|---------------|----------------|------------------|
|-----------------|---------------|----------------|------------4-----|
|-----------------|-----------4--2|----------------|--------------6-4-|
|4-4-4-4-4-4-4-4-|4-4-4-4-4-4--4--|4-4-4-4-4-4-4-4-|4-4-4-4-4-4-------|
 Mississipi
 Up in Memphis

|-----------------|-------------------|-----------------|--------------------|
|-----------------|-------------------|-----------------|--------------------|
|-----------------|-------------------|-----------------|--------------------|
|-----------------|-------------4---2-|-----------------|-------------2-4-5--|
|-4-4-4-4-4-4-4-4-|-4-4-4-4-4-4---4---|-4-4-4-4-4-4-4-4-|-4-4-4-4-4-4--------|
  Mammas dancing
  Mammas babys

                                                    1 + 2 + 3 + a 4 + a
|----------------|----------------|----------------|-------------------|
|----------------|----------------|----------------|-------------------|
|----------------|----------------|----------------|4-4-4-4-4-------1--|
|6-6-6-6-6-6-6-6-|4-4-4-4-4-4-4-4-|2-2-2-2-2-2-2-2-|--------------2---2|
|----------------|----------------|----------------|------------4------|
                                   Always wanting more
  $
|----------------|----------------|----------------|------------------|
|----------------|----------------|----------------|------------------|
|----------------|4-4-4-4-4-4-4-1-|----------------|--------2-2-2-1---|
|4-4-4-4-4-4-4-4-|----------------|4-4-4-4-4-4-4-4-|----------------2-|
|----------------|----------------|----------------|5-5-5-5-----------|
  Black Velvet                                                  4 + a

                                   1.              2.
                        (3. To Coda)
|----------------|-----------------||------------||-----------------|
|----------------|-----------------||-----------o||-----------------|
|----------------|4-4-4-4-4-4-4-4--||-2----1----o||2-2-2-2-1-1-1-1--|
|4-4-4-4-4-4-4-4-|-----------------||------------||-----------------|
|----------------|-----------------||------------||-----------------|
 A new religion                                   Black velvet if you please

|-----------------|----------------------|----------------|----------------|
|-----------------|----------------------|----------------|----------------|
|-----------------|----------1-------1---|----------------|1-1-1-1-1-1-1-1-|
|-----------------|------------2---2---2-|4-4-4-4-4-4-4-4-|----------------|
|-4-4-4-4-4-4-4-4-|-4-4-4-4------4-------|----------------|----------------|
                             3 + a 4 + a    Every word

|-------------------|--------------------|-----------------|------------------|
|-------------------|--------------------|-----------------|------------------|
|-------------------|------------------1-|-----------------|------------------|
|---------------4-2-|--------------4-----|-4-4-4-4-4-4-4-4-|------------------|
|-4-4-4-4-4-4-4-----|-4-4-4-4-4-4----4---|-----------------|-5-5-5-5-5-5-5-5--|
              4 + a                4 + a    In a flash
                
|-----------|----------||-----------------|-------------------|
|-----1-----|----------||o----------------|-------------------|
|2------4-2-|1h2p1-----||o----------------|-------------------|
|-----------|----------||-----------------|-------------4---2-|
|-----------|----------||-4-4-4-4-4-4-4-4-|-4-4-4-4-4-4---4---|
 1    2 + a               (Guitar Solo)

                                       
  1.                                   2.                    D.S. $  al Coda
|----------------|-------------------||----------------|-------------------||
|----------------|------------------o||----------------|-------------------||
|----------------|------------4-----o||----------------|---------------1---||
|----------------|--------------6-4--||----------------|---------2-2-4---2-||
|4-4-4-4-4-4-4-4-|4-4-4-4-4-4--------||4-4-4-4-4-4-4-4-|-4-4-4-4-----------||

-----
Coda                      
-----                   
                          3 + a 4 + a
|----------------|--------------------|----------------|----------------|
|----------------|--------------------|----------------|----------------|
|2-2-2-2-1-1-1-1-|--------1-------1---|----------------|4-4-4-4-4-4-4-4-|
|----------------|----------2---2---2-|4-4-4-4-4-4-4-4-|----------------|
|----------------|4-4-4-4-----4-------|----------------|----------------|
 black velvet if you please            Black velvet


|----------------|-----------------|----------------|----------------|----|----|
|----------------|-----------------|----------------|----------------|----|----|
|----------------|---------2-2-2-1-|----------------|4-4-4-4-4-4-4-4-|2-1-|----|
|4-4-4-4-4-4-4-4-|----------------2|4-4-4-4-4-4-4-4-|----------------|----|----|
|----------------|5-5-5-5----------|----------------|----------------|----|----|
                                    A new religion                         123(drum)

||-----------------|--------------------||----------------|------------------|
||o----------------|-------------------o||----------------|------------------|
||o----------------|-------------------o||----------------|------------------|
||-----------------|-------------4---2--||----------------|------------4---2-|
||-4-4-4-4-4-4-4-4-|-4-4-4-4-4-4---4----||4-4-4-4-4-4-4-4-|4-4-4-4-4-4---4---|


|-----------------|---------------------|-----------------|--------------------|
|-----------------|-------------4-------|-----------------|--------------------|
|-----------------|-----------4-------4-|-----------------|--------------------|
|-----------------|---------4-----4-6---|-----------------|-------------4---2--|
|4-4-4-4-4-4-4-4-|4-4-4-4---------------|-4-4-4-4-4-4-4-4-|-4-4-4-4-4-4---4----|
                  1 + 2 +   3 + a 4 + a


|----------------|------------------|----------------|------------------|
|----------------|------------------|----------------|------------------|
|----------------|------------4-----|----------------|------------------|
|----------------|--------------6-4-|----------------|------------4---2-|
|4-4-4-4-4-4-4-4-|4-4-4-4-4-4-------|4-4-4-4-4-4-4-4-|4-4-4-4-4-4---4---|
                                

|----------------|-----------------------|----------------|-------------------|
|----------------|-----4-----3-----------|----------------|-------------------|
|----------------|-------4-----4---4---4-|----------------|-------------------|
|----------------|---------6-----6---6---|----------------|------------4---2--|
|4-4-4-4-4-4-4-4-|4-4--------------------|4-4-4-4-4-4-4-4-|4-4-4-4-4-4---4----|
                       2 & a 3 & a 4 & a

|----------------|-------------------|
|----------------|-------------------|
|----------------|------------4------|
|----------------|--------------6-4--|
|4-4-4-4-4-4-4-4-|4-4-4-4-4-4--------|    Fade to end

END

            
            
Suggest correction
Creating personal tab
Creating personal tab
You can edit any tab online and save it as your Personal.

You can edit, replace or remove any tab part or add personal notes – all changes will be seen only by you.

Personal tabs can be accessed anytime from any device, even offline.
Learn more »
Give kudos to tab author, rate the tab!
1 2 3 4 5
comments
print report bad tab
guest
You may want to rate the tab now too:
select rating
Wanna post a correction for this tab? Suggest correction