Oops, an error
Loading. Please wait.

Scared tab

version 1
version 1

Whole song

3,360 views 1 this week
1 commentread comment
1 2 3 4 5
x 3
add to favorites
×
Save as Personal and add changes to this tab that will be seen only by you. Learn more ›
×
You can save this tab as Personal to edit and correct it or add notes. All changes will be seen only by you. Learn more »
launch autoscroll
font size
0
reset
how to read this tab
guitar tuner
edit
Autoscroll
slow
fast
+/-
esc
set tempo
stop
Author
Difficulty
By: Akonite

Verse-Palm Mute

e--------------------------------|
B--------------------------------|
G-7------4------6----------------|
D-7------4------6----------------|
A-5(X16)-2(X40)-4(X8)------------|
E--------------------------------|


Chorus

e-2-2-22--3-3-33--2-2-22--2-2-22-|
B-3-3-33--3-3-33--3-3-33--2-2-22-|
G-2-2-22--0-0-00--2-2-22--3-3-33-|
D-0-0-00--0-0-00--0-0-00--4-4-44-|
A-0-0-00--2-2-22--0-0-00--0-0-00-|
E-0-0-00--3-3-33--0-0-00---------|

Refrain

e-------------------------------|
B------------------------(12-10-|second time
G-----4-6-7-9-11-12-14-11-------|
D-4-5---------------------------|
A-------------------------------|
E-------------------------------| x4

During

e-3------2-|
B-3------3-|
G-2(x16)-2(x8) x4
D---------|
A---------|
E---------|

            
            
Suggest correction
Creating personal tab
Creating personal tab
You can edit any tab online and save it as your Personal.

You can edit, replace or remove any tab part or add personal notes – all changes will be seen only by you.

Personal tabs can be accessed anytime from any device, even offline.
Learn more »
Give kudos to tab author, rate the tab!
1 2 3 4 5
comments
print report bad tab
1 comment total.
0 reply
giulianiboy23 31 Oct 15, 2006 03:16 PM

hey the verse is actually:
e
b
g-7-----4-----9-----7----6
d-7-----4-----9-----7----6
a-5(x16)2(x16)7(x16)5(x8)4(x8)
e-
and the chords for the chorus are B,G,D, and F# the final chord you posted is correct which is the f# and the solo/refrain is correct also. nice one. www.myspace.com/thesvens!

guest
You may want to rate the tab now too:
select rating
Wanna post a correction for this tab? Suggest correction