Oops, an error
Loading. Please wait.

St Justice tab

version 1
version 1

Whole song

Interactive

4,027 views 3 this week
1 commentread comment
1 2 3 4 5
x 6
add to favorites
×
Save as Personal and add changes to this tab that will be seen only by you. Learn more ›
×
You can save this tab as Personal to edit and correct it or add notes. All changes will be seen only by you. Learn more »
launch autoscroll
font size
0
reset
how to read this tab
guitar tuner
edit
Autoscroll
slow
fast
+/-
esc
set tempo
stop
Author
Difficulty
Albert Hammond Jr. - St. Justice

Bass intro
|------------------------------|
|------------------------------|
|------------------------------|
|------------------------------|
|-------------10--12---10------|
|-----8--------------------8---|

Guitar intro
E|-----------------------------|
B|--12-14-12-16-12-14-12-------|
G|-----------------------------|
D|-----------------------------|
A|-----------------------------|
E|-----------------------------| (x4)

Verse
E|-----------------------------|
B|--12-14-12-16-12-14-12-------|
G|-----------------------------|
D|-----------------------------|
A|-----------------------------|
E|-----------------------------| (x8)

E|--13-15-13-17-13-15-13-------|
B|-----------------------------|
G|-----------------------------|
D|-----------------------------|
A|-----------------------------|
E|-----------------------------| (x8)

E|-----------------------------|
B|--12-14-12-16-12-14-12-------|
G|-----------------------------|
D|-----------------------------|
A|-----------------------------|
E|-----------------------------| (x2)

E|--14-16-14-18-14-16-14-------|
B|-----------------------------|
G|-----------------------------|
D|-----------------------------|
A|-----------------------------|
E|-----------------------------| (x2)

E|--13-15-13-17-13-15-13-------|
B|-----------------------------|
G|-----------------------------|
D|-----------------------------|
A|-----------------------------|
E|-----------------------------| (x2) 

E|-----------------------------|
B|--12-14-12-16-12-14-12-------|
G|-----------------------------|
D|-----------------------------|
A|-----------------------------|
E|-----------------------------| (x2)

E|--14-16-14-18-14-16-14-------|
B|-----------------------------|
G|-----------------------------|
D|-----------------------------|
A|-----------------------------|
E|-----------------------------| (x2)

E|--13-15-13-17-13-15-13-------|
B|-----------------------------|
G|-----------------------------|
D|-----------------------------|
A|-----------------------------|
E|-----------------------------| (x2)

E|-----------------------------|
B|--12-14-12-16-12-14-12-------|
G|-----------------------------|
D|-----------------------------|
A|-----------------------------|
E|-----------------------------| (x2)
 
Repeat vers

solo:
E|------------------------------------|
B|---7--5-7-5-4--2-4-2-0-----2/4--2---|
G|------------------------1-----------|
D|------------------------------------|
A|------------------------------------|
E|------------------------------------| (x2)

You never grow up and you never could see
The world's coming now, it's crashing right on me   
On me                                                 (solo)
And everyone knows that you never go back
That you never did see ‘cause we never attack 
Yeah, forget me
I'll forget you 

something you said to me                              (bass intro)

something you said to me i, I can't explain it        (intro)
something you said to me i, I know you waste it

End chord

E|----|
B|-1--|
G|----|
D|-2--|
A|-3--|
E|----|

            
            
Suggest correction
Creating personal tab
Creating personal tab
You can edit any tab online and save it as your Personal.

You can edit, replace or remove any tab part or add personal notes – all changes will be seen only by you.

Personal tabs can be accessed anytime from any device, even offline.
Learn more »
comments
print report bad tab
1 comment total.
0 reply
iquiroga99 10 Sep 19, 2014 07:25 PM

I think your solo sounds too low. This is what I think it is

E|------------------------------------|
B|---12--11-12-11-9--7-9-7-5----4-2---|
G|----------------------------4-------|
D|------------------------------------|
A|------------------------------------|
E|------------------------------------|

guest
You may want to rate the tab now too:
select rating
Wanna post a correction for this tab? Suggest correction