Oops, an error
Loading. Please wait.

Autre Temps bass

version 1
version 1

Whole song

Interactive

by Alcest
4,649 views 1 this week
3 commentsread comments
1 2 3 4 5
2 more votes to show rating
add to favorites
×
Save as Personal and add changes to this tab that will be seen only by you. Learn more ›
×
You can save this tab as Personal to edit and correct it or add notes. All changes will be seen only by you. Learn more »
launch autoscroll
font size
0
reset
guitar tuner
edit
Autoscroll
slow
fast
+/-
esc
set tempo
stop
Author
Difficulty
-----------------------------------------------------------------------------
                             Autre Temps - Alcest
-----------------------------------------------------------------------------

Tabbed by: Liam Rehders
E-mail: liamrehders@gmail.com

Tuning: Standard EADG

1:31...
G|-------------------------------------------------------|
D|------9-11-11-11-11-11-11-11-11-11-11-11-11-11-11-11---| x3
A|-9-11--------------------------------------------------|
E|-------------------------------------------------------|

G|-9-8h9h8--------------------------------------------------------------|
D|---------9-11-11-11-11-11-11-11-11-11-11-11-11-11-11-11-11-11-11-11-11| x1
A|----------------------------------------------------------------------|
E|----------------------------------------------------------------------|

1:47 Slide down into this
G|-----------------------------------------------------------------------|
D|-----------------------------------------------------------------------| x2
A|-4444444444-2222222222-44444444444444444444---0000000000-2222222222----|...
E|--------------------------------------------4--------------------------|

G|----------------------------|
D|----------------------------|
A|-4444444444444444-2222------|
E|----------------------------|

Second time round play this on the end:
G|-----------------------------|
D|-----------------------------|
A|-----------------------------|
E|-222222222222222222222-------|

Chorus A (2:17...)
G|------------------------------------------------|
D|------------------------------------------------|
A|-4444444444-----------------------999999999-----|
E|------------4444444444-7777777777---------------|

Chorus B
G|------------------------------------------------|
D|------------------------------------------------|
A|-4444444444-------------------------------------|
E|------------4444444444-7777777777-2222222222----|

CHORUS STRUCURE: ABAB

(2:48) Play this back into the verse riff
G|----------------------------|
D|----------------------------|
A|-000000000000000-22222------|
E|----------------------------|

2:51
G|-----------------------------------------------------------------------|
D|-----------------------------------------------------------------------| x4
A|-4444444444-2222222222-44444444444444444444---0000000000-2222222222----|...
E|--------------------------------------------4--------------------------|

G|----------------------------|
D|----------------------------|
A|-4444444444444444-2222------|
E|----------------------------|

The fourth time play this on the end: (This part leads into the pre-chorus)
G|----------------------------|
D|----------------------------|
A|-44444444444444444444-------|
E|----------------------------|

Pre-chorus (3:52)
G|----------------------------------------------|
D|----------------------------------------------| x2
A|-0000000000-4444444444-22222222222222222222---|
E|----------------------------------------------|

4:07
G|-------------------------------------------------------------------------|
D|-------------------------------------------------------------------------|
A|-000000000000000000000000000000------------------------------------------|
E|--------------------------------22222222222222222222222222222222222222---|

G|--------------------------------------------------------------------------|
D|--------------------------------------------------------------------------|
A|-00000000000000000000000000000-777777777777777777776666666666/22222-------|
E|--------------------------------------------------------------------22222-|

(4:37) Back into the chorus
Chorus A
G|------------------------------------------------|
D|------------------------------------------------|
A|-4444444444-----------------------999999999-----|
E|------------4444444444-7777777777---------------|

Chorus B
G|------------------------------------------------|
D|------------------------------------------------|
A|-4444444444-------------------------------------|
E|------------4444444444-7777777777-2222222222----|

CHORUS STRUCTURE: ABAB

The final section (starting at 5:07) is the same bassline as the very first
G|-------------------------------------------------------|
D|------9-11-11-11-11-11-11-11-11-11-11-11-11-11-11-11---| x7
A|-9-11--------------------------------------------------|
E|-------------------------------------------------------|

G|-9-8h9h8--------------------------------------------------------------|
D|---------9-11-11-11-11-11-11-11-11-11-11-11-11-11-11-11-11-11-11-11-11| x1
A|----------------------------------------------------------------------|
E|----------------------------------------------------------------------|

End on the 4th fret of A and let it ring out
G|-----------------------------------|
D|-----------------------------------|
A|-4 (ring)--------------------------|
E|-----------------------------------|

I tabbed this by ear as best I could. The bass is actually pretty basic considering how 
beautiful Alcest's music is.

I hope this tab helps you, and please check out my YouTube channel which has some of my 
original compositions: http://www.youtube.com/liamrehdersmusic

Many thanks.

| /  slide up
| \  slide down
| h  hammer-on
| p  pull-off
| ~  vibrato
| +  harmonic
| x  Mute note
=============================================================================

            
            
Suggest correction
Creating personal tab
Creating personal tab
You can edit any tab online and save it as your Personal.

You can edit, replace or remove any tab part or add personal notes – all changes will be seen only by you.

Personal tabs can be accessed anytime from any device, even offline.
Learn more »
Give kudos to tab author, rate the tab!
1 2 3 4 5
comments
print report bad tab
3 comments total.
0 reply
Pale_Pilgrim 702 Feb 02, 2014 07:25 PM, edited on February 3 2014, 12:26 am

Hey there. Good job, the notes are right, I just thought I'd offer a correction - more specifically, a re-worked tab with the rhythm marked correctly. This song is slightly unusual for bass in that it mainly uses 5/4 timing and the intro notes (which later become the outro) enter at the end of a 3rd "beat" rather than 1st or 2nd, as is common.

0 reply
Pale_Pilgrim 702 Feb 02, 2014 07:27 PM

-----------------------------------------------------------------------------
Autre Temps - Alcest
-----------------------------------------------------------------------------

Tabbed by: Liam Rehders
E-mail: liamrehders@gmail.com

Tuning: Standard EADG

Intro bit A [1:31] **these are elevens, not oness**
G|----------------------------------------------|
D|------9-11-11111111-11-11111111-11-11111111---| << (x3)
A|-9-11-----------------------------------------|
E|----------------------------------------------|

Intro bit B
G|-9-8h9h8--------------------------------------------------------------|
D|---------9-11-11-11-11-11-11-11-11-11-11-11-11-11-11-11-11-11-11-11-11|
A|----------------------------------------------------------------------|
E|----------------------------------------------------------------------|

Verse bit A [1:47]
G|---------------------------------------------------------|
D|---------------------------------------------------------|
A|-4-4444-4-4444-2-2222-2-2222-4-4444-4-4444-4-4444-4-4444-|
E|---------------------------------------------------------|

G|-----------------------------|
D|-----------------------------|
A|-0-0000-0-0000-2-2222-2-2222-|
E|-----------------------------|

Verse Bit B
G|----------------------------|
D|----------------------------|
A|-4-4444-4-4444-4-4444-2-2-2-|
E|----------------------------|

Repeat Verse Bit A

Pre-Chorus
G|-----------------------------|
D|-----------------------------|
A|-----------------------------|
E|-2-2222-2-2222-2-2222-2-2222-|

Chorus (x2) [2:17]
G|-------------------------------------------------------|
D|-------------------------------------------------------|
A|-4-4444-4-4444-----------------------------9-9999-9999-|
E|---------------4-4444-4-4444-7-7777-7-7777-------------|

G|---------------------------------------------------------|
D|---------------------------------------------------------|
A|-4-4444-4-4444-------------------------------------------|
E|---------------4-4444-4-4444-7-7777-7-7777-2-2222-2-2222-|

Post-Chorus [2:48]
G|-----------------------------|
D|-----------------------------|
A|-0-0000-0-0000-0-0000-2-2222-|
E|-----------------------------|

Repeat Verse bit A Verse bit B (x3) [2:51]

Repeat Verse bit A

Post-Verse
G|-----------------------------|
D|-----------------------------|
A|-4-4444-4-4444-4-4444-4-4444-|
E|-----------------------------|

Bridge [3:52]
G|-----------------------------------------------------------|
D|-----------------------------------------------------------| << (x2)
A|-0-0000-0-0000-4-4444-4-4444-2-2222-2-2222-2-2222-2-2222---|
E|-----------------------------------------------------------|

Bridge continued [4:07]
G|---------------------------------------------------------|
D|---------------------------------------------------------|
A|-0-0000-0-0000-0-0000-0-0000-0-0000-0-0000-0-0000-0-0000-|
E|---------------------------------------------------------|

G|---------------------------------------------------------|
D|---------------------------------------------------------|
A|-2-2222-2-2222-2-2222-2-2222-2-2222-2-2222-2-2222-2-2222-|
E|---------------------------------------------------------|

G|---------------------------------------------------------|
D|---------------------------------------------------------|
A|-0-0000-0-0000-0-0000-0-0000-0-0000-0-0000-0-0000-0-0000-|
E|---------------------------------------------------------|

G|--------------------------------------------------------|
D|---------------------------------------------------------|
A|-7-7777-7-7777-7-7777-7-7777-6-6666-6-6666-2-2222--------|
E|--------------------------------------------------2-2222-|

Repeat Chorus [4:37]

Last Chorus [4:43]
G|-------------------------------------------------------|
D|-------------------------------------------------------|
A|-4-4444-4-4444-----------------------------9-9999-9999-|
E|---------------4-4444-4-4444-7-7777-7-7777-------------|

G|------------------------------------------------------|
D|------------------------------------------------------|
A|-4-4444-4-4444----------------------------------------|
E|---------------4-4444-4-4444-7-7777-7-7777-2-2222/(9)-|

Repeat Intro bit A (x7) [5:07]

Repeat Intro bit B [5:34]

G|------------------------------------------|
D|------9\----------------------------------|
A|-9-11---4~~~~~~~~~~~~~~~~~~~~~~~~~~~~~~~~-|
E|------------------------------------------|

0 reply
Pale_Pilgrim 702 Feb 02, 2014 08:16 PM

Upon further inspection, I'm not so sure I got it right myself! Ha, but I'll keep at it. Great song, fun to play along with at any rate.

guest
You may want to rate the tab now too:
select rating
Wanna post a correction for this tab? Suggest correction