Oops, an error
Loading. Please wait.

Whiskey And Wine tab

by Alcoa
580 views 1 this week
no commentswrite comment
1 2 3 4 5
3 more votes to show rating
add to favorites
×
Save as Personal and add changes to this tab that will be seen only by you. Learn more ›
×
You can save this tab as Personal to edit and correct it or add notes. All changes will be seen only by you. Learn more »
launch autoscroll
font size
0
reset
how to read this tab
guitar tuner
edit
Autoscroll
slow
fast
+/-
esc
set tempo
stop
Alcoa
Whiskey and Wine
Bone & Marrow

Full Step Down


[Intro]

Electric
d|------------------------3------------------------------------------3-------------------|
A|------------------------3------------------------------------------3-------------------|
F|------------------------0------------------------------------------0-------------------|
C|------------------------0--------------------------------------------------------------|
G|-------------------------------------------------------------------3-------------------|
D|------------------------3--------------------------------------------------------------|

Acoustic
d|------------------------3--3--3----3--3-3-3------------------------3--3--3----3--3-3-3-|
A|-3--3-------------------3--3--3----3--3-3-3--3--3------------------3--3--3----3--3-3-3-|
F|-2--0--0---0------------0--0--0-0--0--0-0-0--2--0--0---0-----------0--0--0-0--0--0-0-0-|
C|-------0h2p0-----0------0--0--0-0--0--0-0-0--------0h2p0-----0-------------------------|
G|--------------2--0----------------------------------------2--0--3--3--3--3-3--3--3-3-3-|
D|--------------------3---3--3--3-3--3--3-3-3--------------------------------------------|


Electric
d|------------------------3------------------------------------------3-------------------|
A|-3--3-------------------3--------------------3--3------------------3-------------------|
F|-2--0--0---0------------0--------------------2--0--0---0-----------0-------------------|
C|-------0h2p0-----0------0--------------------------0h2p0-----0-------------------------|
G|--------------2--0----------------------------------------2--0--3----------------------|
D|--------------------3------------------------------------------------------------------|

Acoustic
d|------------------------3--3--3----3--3-3-3------------------------3--3--3----3--3-3-3-|
A|-3--3-------------------3--3--3----3--3-3-3--3--3------------------3--3--3----3--3-3-3-|
F|-2--0--0---0------------0--0--0-0--0--0-0-0--2--0--0---0-----------0--0--0-0--0--0-0-0-|
C|-------0h2p0-----0------0--0--0-0--0--0-0-0--------0h2p0-----0-------------------------|
G|--------------2--0----------------------------------------2--0--3--3--3--3-3--3--3-3-3-|
D|--------------------3---3--3--3-3--3--3-3-3--------------------------------------------|


[Verse]

Electric
d|------------------------3-------------------------------------------3-------------------|
A|-3--3-------------------3--------------------3--3-------------------3-------------------|
F|-2--0--0---0------------0--------------------2--0--0---0------------0-------------------|
C|-------0h2p0-----0------0--------------------------0h2p0-----0--------------------------|
G|--------------2--0----------------------------------------2--0---3----------------------|
D|--------------------3-------------------------------------------------------------------|

Acoustic
d|--------------3--3-3----3--3--3----3--3-3-3---------------3--3-3----3--3--3----3--3-3-3-|
A|--------------3--3-3----3--3--3----3--3-3-3---------------3--3-3----3--3--3----3--3-3-3-|
F|-----------0--0--0-0----0--0--0-0--0--0-0-0---------------0--0-0-0--0--0--0-0--0--0-0-0-|
C|---------------------0--0--0--0-0--0--0-0-0------------0--0--0-0------------------------|
G|-----------3--3--3-3---------------------------------------------3--3--3--3-3--3--3-3-3-|
D|---------------------3--3--3--3-3--3--3-3-3------------3--3--3-3------------------------|
Well I'd love to lie and say I don't hate the truth, 
But I hate myself for not leaving you.
An anchor dragged in tow and I cut the line. 
And I heal my wounds with whiskey and wine.


[Post-Verse]

Electric
d|------------------------3-----------3--3-3-------------------------3-------------------|
A|-3--3-------------------3-----------3--3-3-------------------------3-------------------|
F|-2--0--0---0------------0-----------0--0-0-2-----------------------0-------------------|
C|-------0h2p0-----0-------------------------2-------------------------------------------|
G|--------------2--0--2------------2--2--2-2-0-------------------------------------------|
D|-------------------------------------------------------------------3-------------------|

Acoustic
d|--------------3--3-3-----3--3--3----3--3-3-3-----------------------3--3--3----3--3-3-3-|
A|--------------3--3-3-----3--3--3----3--3-3-3-------3---3-----------3--3--3----3--3-3-3-|
F|-----------0--0--0-0-0---0--0--0-0--0--0-0-2-------0h2p0--0--0-----0--0--0----0--0-0-0-|
C|-------------------------------------------2--------------2--0--0--0--0--0-0--0--0-0-0-|
G|-----------3--3--3-3-2---2--2--2-2--2--2-2-0-------------------------------------------|
D|----------------------------------------------------------------3--3--3--3-3--3--3-3-3-|


Electric
d|------------------------3------------------------------------------3-------------------|
A|-3--3-------------------3--------------------3--3------------------3-------------------|
F|-2--0--0---0------------0--------------------2--0--0---0-----------0-------------------|
C|-------0h2p0-----0---------------------------------0h2p0-----0-----0-------------------|
G|--------------2--0--3-------------------------------------2--0-------------------------|
D|----------------------------------------------------------------3----------------------|

Acoustic
d|------------------------3--3--3----3--3-3-3------------------------3--3--3----3--3-3-3-|
A|-3--3-------------------3--3--3----3--3-3-3--3--3------------------3--3--3----3--3-3-3-|
F|-2--0--0---0------------0--0--0-0--0--0-0-0--2--0--0---0-----------0--0--0----0--0-0-0-|
C|-------0h2p0-----0---------------------------------0h2p0-----0-----0--0--0-0--0--0-0-0-|
G|--------------2--0--3---3--3--3-3--3--3-3-3---------------2--0-------------------------|
D|----------------------------------------------------------------3--3--3--3-3--3--3-3-3-|


Electric
d|------------------------3-------------------|
A|-3--3-------------------3-------------------|
F|-2--0--0---0------------0-------------------|
C|-------0h2p0-----0--------------------------|
G|--------------2--0--3-----------------------|
D|--------------------------------------------|

Acoustic
d|------------------------3--3--3----3--3-3-3-|
A|-3--3-------------------3--3--3----3--3-3-3-|
F|-2--0--0---0------------0--0--0-0--0--0-0-0-|
C|-------0h2p0-----0--------------------------|
G|--------------2--0--3---3--3--3-3--3--3-3-3-|
D|--------------------------------------------|


[Verse]

Electric
d|------------------------3-------------------------------------------3-------------------|
A|-3--3-------------------3--------------------3--3-------------------3-------------------|
F|-2--0--0---0------------0--------------------2--0--0---0------------0-------------------|
C|-------0h2p0-----0------0--------------------------0h2p0-----0--------------------------|
G|--------------2--0----------------------------------------2--0---3----------------------|
D|--------------------3-------------------------------------------------------------------|

Acoustic
d|--------------3--3-3----3--3--3----3--3-3-3---------------3--3-3----3--3--3----3--3-3-3-|
A|--------------3--3-3----3--3--3----3--3-3-3---------------3--3-3----3--3--3----3--3-3-3-|
F|-----------0--0--0-0----0--0--0-0--0--0-0-0---------------0--0-0-0--0--0--0-0--0--0-0-0-|
C|---------------------0--0--0--0-0--0--0-0-0------------0--0--0-0------------------------|
G|-----------3--3--3-3---------------------------------------------3--3--3--3-3--3--3-3-3-|
D|---------------------3--3--3--3-3--3--3-3-3------------3--3--3-3------------------------|
Cut deep your words, deep enough to scar. 
And thin blood it ran through my tired heart.
Slept away the days, stayed up all night. 
And I heal my wounds with whiskey and wine.


[Post-Verse]

Electric
d|------------------------3-----------3--3-3-------------------------3--3-------3--3-3-3-|
A|-3--3-------------------3-----------3--3-3---------3---3-----------3--3-------3--3-3-3-|
F|-2--0--0---0------------0-----------0--0-0-2-------0h2p0-----------0--0-------0--0-0-0-|
C|-------0h2p0-----0-------------------------2--------------2--0-----0--0----0--0--0-0-0-|
G|--------------2--0--2------------2--2--2-2-0-------------------------------------------|
D|----------------------------------------------------------------3-----3----3--3--3-3-3-|

Acoustic
d|--------------3--3-3-----3--3--3----3--3-3-3-----------------------3--3--3----3--3-3-3-|
A|--------------3--3-3-----3--3--3----3--3-3-3-------3---3-----------3--3--3----3--3-3-3-|
F|-----------0--0--0-0-0---0--0--0-0--0--0-0-2-------0h2p0--0--0-----0--0--0----0--0-0-0-|
C|-------------------------------------------2--------------2--0--0--0--0--0-0--0--0-0-0-|
G|-----------3--3--3-3-2---2--2--2-2--2--2-2-0-------------------------------------------|
D|----------------------------------------------------------------3--3--3--3-3--3--3-3-3-|


Electric
d|------------------------3--3--3----3--3-3-3------------------------3--3-------3--3-3-3-|
A|-3--3-------------------3--3--3----3--3-3-3--3--3------------------3--3-------3--3-3-3-|
F|-2--0--0---0------------0--0--0-0--0--0-0-0--2--0--0---0-----------0--0-------0--0-0-0-|
C|-------0h2p0-----0---------------------------------0h2p0-----0-----0--0----0--0--0-0-0-|
G|--------------2--0--3---3--3--3-3--3--3-3-3---------------2--0-------------------------|
D|----------------------------------------------------------------3-----3----3--3--3-3-3-|

Acoustic
d|------------------------3--3--3----3--3-3-3------------------------3--3--3----3--3-3-3-|
A|-3--3-------------------3--3--3----3--3-3-3--3--3------------------3--3--3----3--3-3-3-|
F|-2--0--0---0------------0--0--0-0--0--0-0-0--2--0--0---0-----------0--0--0----0--0-0-0-|
C|-------0h2p0-----0---------------------------------0h2p0-----0-----0--0--0-0--0--0-0-0-|
G|--------------2--0--3---3--3--3-3--3--3-3-3---------------2--0-------------------------|
D|----------------------------------------------------------------3--3--3--3-3--3--3-3-3-|


Electric
d|------------------------3--3--3-3--3--3-3-3-|
A|-3--3-------------------3--3--3-3--3--3-3-3-|
F|-2--0--0---0------------0--0--0-0--0--0-0-0-|
C|-------0h2p0-----0--------------------------|
G|--------------2--0--3---3--3--3-3--3--3-3-3-|
D|--------------------------------------------|

Acoustic
d|------------------------3--3--3----3--3-3-3-|
A|-3--3-------------------3--3--3----3--3-3-3-|
F|-2--0--0---0------------0--0--0-0--0--0-0-0-|
C|-------0h2p0-----0--------------------------|
G|--------------2--0--3---3--3--3-3--3--3-3-3-|
D|--------------------------------------------|


[Verse]

Electric
d|------------------------3-------------------------------------------3-------------------|
A|-3--3-------------------3--------------------3--3-------------------3-------------------|
F|-2--0--0---0------------0--------------------2--0--0---0------------0-------------------|
C|-------0h2p0-----0------0--------------------------0h2p0-----0--------------------------|
G|--------------2--0----------------------------------------2--0---3--3-------------------|
D|--------------------3---3---------------------------------------------------------------|

Acoustic
d|--------------3--3-3----3--3--3----3--3-3-3---------------3--3-3----3--3--3----3--3-3-3-|
A|--------------3--3-3----3--3--3----3--3-3-3---------------3--3-3----3--3--3----3--3-3-3-|
F|-----------0--0--0-0----0--0--0-0--0--0-0-0---------------0--0-0-0--0--0--0-0--0--0-0-0-|
C|---------------------0--0--0--0-0--0--0-0-0------------0--0--0-0------------------------|
G|-----------3--3--3-3---------------------------------------------3--3--3--3-3--3--3-3-3-|
D|---------------------3--3--3--3-3--3--3-3-3------------3--3--3-3------------------------|
A thing trail of smoke, the grey mess of ash, 
The cigarettes they burn away unwanted pasts.
An anchor dragged in tow and I cut the line. 
And I heal my wounds with whiskey and wine.


[Outro]

Electric
d|------------------------3-----------3--3-3-------------------------3--3-------3--3-3-3-|
A|-3--3-------------------3-----------3--3-3---------3---3-----------3--3-------3--3-3-3-|
F|-2--0--0---0------------0-----------0--0-0-2-------0h2p0-----------0--0-------0--0-0-0-|
C|-------0h2p0-----0-------------------------2--------------2--0-----0--0----0--0--0-0-0-|
G|--------------2--0--2------------2--2--2-2-0-------------------------------------------|
D|----------------------------------------------------------------3-----3----3--3--3-3-3-|

Acoustic
d|--------------3--3-3-----3--3--3----3--3-3-3-----------------------3--3--3----3--3-3-3-|
A|--------------3--3-3-----3--3--3----3--3-3-3-------3---3-----------3--3--3----3--3-3-3-|
F|-----------0--0--0-0-0---0--0--0-0--0--0-0-2-------0h2p0--0--0-----0--0--0----0--0-0-0-|
C|-------------------------------------------2--------------2--0--0--0--0--0-0--0--0-0-0-|
G|-----------3--3--3-3-2---2--2--2-2--2--2-2-0-------------------------------------------|
D|----------------------------------------------------------------3--3--3--3-3--3--3-3-3-|
To bury it out of sight, with whiskey and wine.


Electric
d|------------------------3--3--3----3--3-3-3------------------------3--3-------3--3-3-3-|
A|-3--3-------------------3--3--3----3--3-3-3--3--3------------------3--3-------3--3-3-3-|
F|-2--0--0---0------------0--0--0-0--0--0-0-0--2--0--0---0-----------0--0-------0--0-0-0-|
C|-------0h2p0-----0---------------------------------0h2p0-----0-----0--0----0--0--0-0-0-|
G|--------------2--0--3---3--3--3-3--3--3-3-3---------------2--0-------------------------|
D|----------------------------------------------------------------3-----3----3--3--3-3-3-|

Acoustic
d|------------------------3--3--3----3--3-3-3------------------------3--3--3----3--3-3-3-|
A|-3--3-------------------3--3--3----3--3-3-3--3--3------------------3--3--3----3--3-3-3-|
F|-2--0--0---0------------0--0--0-0--0--0-0-0--2--0--0---0-----------0--0--0----0--0-0-0-|
C|-------0h2p0-----0---------------------------------0h2p0-----0-----0--0--0-0--0--0-0-0-|
G|--------------2--0--3---3--3--3-3--3--3-3-3---------------2--0-------------------------|
D|----------------------------------------------------------------3--3--3--3-3--3--3-3-3-|


Electric
d|------------------------3--3--3-3--3--3-3-3-|
A|-3--3-------------------3--3--3-3--3--3-3-3-|
F|-2--0--0---0------------0--0--0-0--0--0-0-0-|
C|-------0h2p0-----0--------------------------|
G|--------------2--0--3---3--3--3-3--3--3-3-3-|
D|--------------------------------------------|

Acoustic
d|------------------------3--3--3----3--3-3-3-|
A|-3--3-------------------3--3--3----3--3-3-3-|
F|-2--0--0---0------------0--0--0-0--0--0-0-0-|
C|-------0h2p0-----0--------------------------|
G|--------------2--0--3---3--3--3-3--3--3-3-3-|
D|--------------------------------------------|


Electric
d|------------------------3-----------3--3-3----------------------------3-|
A|-3--3-------------------3-----------3--3-3---------3---3--------------3-|
F|-2--0--0---0------------0-----------0--0-0-2-------0h2p0--0--0--------0-|
C|-------0h2p0-----0-------------------------2--------------2--0-----0--0-|
G|--------------2--0--2------------2--2--2-2-0--------------------2--0----|
D|----------------------------------------------------------------------3-|

Acoustic
d|--------------3--3-3-----3--3--3----3--3-3-3--3-----------------------3-|
F|--------------3--3-3-----3--3--3----3--3-3-3--3--------3---3----------3-|
A|-----------0--0--0-0-0---0--0--0-0--0--0-0-2--2-2------0h2p0----------0-|
C|-------------------------------------------2--2-2-------------0-------0-|
G|-----------3--3--3-3-2---2--2--2-2--2--2-2-0--0-0-------------2--0------|
D|----------------------------------------------------------------------3-|



************************************

| h  Hammer-on
| p  Pull-off

************************************

            
            
Suggest correction
Creating personal tab
Creating personal tab
You can edit any tab online and save it as your Personal.

You can edit, replace or remove any tab part or add personal notes – all changes will be seen only by you.

Personal tabs can be accessed anytime from any device, even offline.
Learn more »
Give kudos to tab author, rate the tab!
1 2 3 4 5
comments
print report bad tab
guest
You may want to rate the tab now too:
select rating
Wanna post a correction for this tab? Suggest correction