Oops, an error
Loading. Please wait.

A Most Profound Quiet bass

version 1
version 1

Whole song

Interactive

by Alesana
1,961 views 1 this week
1 commentread comment
1 2 3 4 5
1 last vote to show rating
add to favorites
×
Save as Personal and add changes to this tab that will be seen only by you. Learn more ›
×
You can save this tab as Personal to edit and correct it or add notes. All changes will be seen only by you. Learn more »
launch autoscroll
font size
0
reset
guitar tuner
edit
Autoscroll
slow
fast
+/-
esc
set tempo
stop
Author
++++++++++++++++++++++++++++++++++
| Alesana- A Most Profound Quiet |
++++++++++++++++++++++++++++++++++


What a great song 
Woo! Its the first one I transcribe from this
great album
It totally rocks!!!!!


Tuning: Drop D (DADG)

Intro
1.
G|-------------------------------------------------------------------------|
D|-------------------------------------------------------------------------|
A|-00000000-00000000-------------------------------------------------------|
D|-------------------55555555-5555x----33333333-33333333-55555555-55555555-|

2.
G|-------------------------------------------------------------------------|
D|-------------------------------------------------------------------------|
A|-00000000-00000000-------------------------------------------------------|
D|-------------------55555555-55555555-33333333-33333333-55555555-55555555-|

Verse
"We should go ahead and kill her right now..." 
3.
G|---------------------------------------------------------------------------------|
D|------------------------------------------------------------------------22222222-|
A|-0x-0x-00x-------------0x-0x-00x-------------------------------------------------|
D|-----------0~-2~-3~-5~-----------0~-2~-3~-5~-33333333-33333333-22222222----------|

"I cant wait! Just imagine how she will suffer!..."
4.
G|---------------------------------------------------------------------------------|
D|---------------------------------------------------------------22222222-22222222-|
A|-0x-0x-00x-------------0x-0x-00x-------------------------------------------------|
D|-----------0~-2~-3~-5~-----------0~-2~-3~-5~-33333333-33333333-------------------|

Pre-Chorus
"How could you fall for my charming charade?..."
5.
G|-------------------------------------|
D|-------------------77777777-7~\------|
A|-00000000-00000000-------------------|
D|-------------------------------------|

Chorus
"Days fade away but guilt still burns inside of me..."
6.
G|-------------------------------------------------------------------------|
D|-------------------------------------------------------------------------|
A|-------------------00000000-00000000-11111111-11111111-33333333-33333333-|
D|-00000000-00000000-------------------------------------------------------|

"Why cant I realize just how the pieces seem to fit..."
7.
G|-------------------------------------------------------------------------|
D|-00000000-00000000-------------------------------------------------------|
A|-------------------00000000-00000000-11111111-11111111-33333333-3333-5\0-|
D|-------------------------------------------------------------------------|

Outro
"Does she know before I met her..."
8.
G|-------------------------------------------|
D|-------------------------------------------|
A|-----0x-0~-----------------0x-0~-----------|--x2
D|-035--------035-2x-2~--035--------55558888-|

Verse
"Can you see the visions of pain?..."
9.
G|----------------------------------------------------------|
D|----------------------------------------------------------|
A|---------------------113x-00-111111-111111-333333-1-0-0-0-|
D|-00x----000-0000x-----------------------------------------|

"Her to me! Im tired of washing my hands clean..."
10.
G|---------------------------------------------------------|
D|---------------------------------------------------------|
A|---------------------113x-00-111111-111111-333333-333333-|
D|-00x----000-0000x----------------------------------------|

Pre-Chorus
"'Tis to a murderer's den you have come..."
11.
G|-------------------------------------|
D|-------------------77777777-7~\------|
A|-00000000-00000000-------------------|
D|-------------------------------------|

Chorus
"Days fade away but guilt still burns inside of me..."
12.
G|-----------------------------------------------------------------5555555-|
D|-------------------------------------------------------------------------|
A|-------------------00000000-00000000-11111111-11111111-33333333-3--------|
D|-00000000-00000000-------------------------------------------------------|

"Why cant I realize just how the pieces seem to fit..."
13.
G|-------------------------------------------------------------------------|
D|-00000000-00000000-------------------------------------------------------|
A|-------------------00000000-00000000-11111111-11111111-33333333-33333333-|
D|-------------------------------------------------------------------------|

Bridge
14.
G|----------------------------------------------------------------------------------|
D|----------------------------------------------------------------------------------|
A|------------------3~---------333333--0~----------------3~-------3333333x-3333333x-|
D|-2~-------------------------------------------------------------------------------|

"What have we done?..."
15.
G|-------------------------------------------------------------------------|
D|-------------------------------------------------------------11-11111111-|
A|-------------------------------------33333333-33333333-222222------------|--x2
D|-2222222x-2222222x-2222222x-22222222-------------------------------------|

Pre-Chorus
"She's all mine!..."
16.
G|----------------|
D|----------------|
A|----------------|
D|-2~-2-2-2-2222x-|

Chorus
"Days fade away but guilt still burns inside of me..."
17.
G|-------------------------------------------------------------------------|
D|-------------------------------------------------------------------------|
A|-------------------00000000-00000000-11111111-11111111-33333333-33333333-|
D|-00000000-00000000-------------------------------------------------------|

"Why cant I realize just how the pieces seem to fit..."
18.
G|-------------------------------------------------------------------------|
D|-00000000-00000000-------------------------------------------------------|
A|-------------------00000000-00000000-11111111-11111111-33333333-3333-5\0-|
D|-------------------------------------------------------------------------|

Outro
"Does she know before I met her..."
19.
G|-------------------------------------------|
D|-------------------------------------------|
A|-----0x-0~-----------------0x-0~-----------|
D|-035--------035-2x-2~--035--------55558888-|

"Only dreamt of so much blood?..."
20.
G|-----------------------------------------|
D|-----------------------------------------|
A|-----0x-0~-----------------0x-0~---------|
D|-035--------035-2x-2~--035--------55558x-|


Lyrics:


We should go ahead and kill her right now
But her eyes are so lovely
I can't wait! Just imagine how she will suffer!
Would someone please tell me I'm not alright
How could you fall for my charming charade?

Days fade away but guilt still burns inside of me
I feel as if I am responsible
Why can't I realize just how the pieces seem to fit?
I feel as if I am responsible

Does she know before I met her I have only dreamt of so much blood?
So why is she tempting me?

Can you see the visions of pain?
How could I? Is that possible?
You must give her to me!
I'm tired of washing my hands clean of what I've done
'Tis to a murderer's den you have come

Its time we throw away the mask
What have we done?
We got too attached!
We can't let her escape!
We let her escape!
This is the last time we ever have to speak again!
She is no longer yours!
We can't let her escape!
She's all mine!


+++++++++++++++++++++++++++++++++
| RaiLeff                       |
| Underground__Dora@Hotmail.Com |
+++++++++++++++++++++++++++++++++

            
            
Suggest correction
Creating personal tab
Creating personal tab
You can edit any tab online and save it as your Personal.

You can edit, replace or remove any tab part or add personal notes – all changes will be seen only by you.

Personal tabs can be accessed anytime from any device, even offline.
Learn more »
Give kudos to tab author, rate the tab!
1 2 3 4 5
comments
print report bad tab
1 comment total.
0 reply
TheMidasTouch 82 Jun 07, 2008 01:53 PM

This is really good, thanks Rai

guest
You may want to rate the tab now too:
select rating
Wanna post a correction for this tab? Suggest correction