Oops, an error
Loading. Please wait.

A Sirens Soliloquy bass

version 1
version 1

Whole song

Interactive

by Alesana
1,474 views 1 this week
no commentswrite comment
1 2 3 4 5
2 more votes to show rating
add to favorites
×
Save as Personal and add changes to this tab that will be seen only by you. Learn more ›
×
You can save this tab as Personal to edit and correct it or add notes. All changes will be seen only by you. Learn more »
launch autoscroll
font size
0
reset
guitar tuner
edit
Autoscroll
slow
fast
+/-
esc
set tempo
stop
Author
A Sirens Soliloquy
Alesana Bass Tab :D

Intro.
1.
G|---------------------------------------|
D|---------------------------------------|
A|-22222-55555---------------------------|
E|-------------33333-22~-----------------|

"Paralyzed by the beauty of those.."
2.
G|---------------------------------------|
D|------------------44-22-00-22-44-22-00-|
A|-2222222222222222----------------------|
E|---------------------------------------|

"Delicately drip from this angel.."
3.
G|---------------------------------------|
D|---------------------------------------|
A|---------------------------------------|
E|-333333333333333-2222222222222222------|

"Suddenly I fear the end of my.."
4.
G|---------------------------------------|
D|------------------44-22-00-22-44-22-00-|
A|-2222222222222222----------------------|
E|---------------------------------------|

"Once a warrior.."
5.
G|---------------------------------------|
D|---------------------------------------|
A|---------------------------------------|
E|-333333333333333-2222222222222222------|

"Left behind to fight ..."
6.
G|---------------------------------------|
D|---------------------------------------|
A|---------------------------------------|
E|-00000-0-0-22222-2-2-33333-3-3-5555555-|

"Hope will strike her down.."
7.
G|---------------------------------------|
D|---------------------------------------|
A|---------------------------------------|
E|-00000-0-0-22222-2-2-33333-3-3-5x------|

Chorus
"Suffering unseen now will be..."
8.
G|---------------------------------------------|
D|---------------------------------------------|
A|-55555555-55555555----------2x---2-0x--------|
E|-------------------5555555x-----2------2-5-3~|

"I am lost in her stare.."
9.
G|---------------------------------------------|
D|---------------------------------------------|
A|-55555555-55555555----------2x---2-0x--------|
E|-------------------5555555x-----2------2-5-3~|

"He.. Is..hers.." / "A soul now echoes.."
10.
G|--------------------|
D|--------------------|
A|-2x---2-0x----------|
E|-----2------2-5-3~--|

Outro.
11.
G|---------------------------------------|
D|---------------------------------------|
A|-22222-55555---------------------------|
E|-------------33333-22x-22x-------------|

"Beautifull whispers leave one so far.."
12.
G|---------------------------------------|
D|------------------44-22-00-22-44-22-00-|
A|-2222222222222222----------------------|
E|---------------------------------------|

"Of ageless struggle.."
13.
G|---------------------------------------|
D|---------------------------------------|
A|---------------------------------------|
E|-333333333333333-2222222222222222------|

"An epic tale of deceit.."
14.
G|---------------------------------------|
D|------------------44-22-00-22-44-22-00-|
A|-2222222222222222----------------------|
E|---------------------------------------|

"Her tounge screams for him.."
15.
G|---------------------------------------|
D|---------------------------------------|
A|---------------------------------------|
E|-333333333333333-2222222222222222------|

Chorus
"Sufferin unseen now will be.."
16.
G|---------------------------------------------|
D|---------------------------------------------|
A|-55555555-55555555----------2x---2-0x--------|
E|-------------------5555555x-----2------2-5-3~|

"I am lost in her stare."
17.
G|---------------------------------------------|
D|---------------------------------------------|
A|-55555555-55555555----------2x---2-0x--------|
E|-------------------5555555x-----2------2-5-3~|

"He..Is..Hers.." / "A soul now echoes with the torture of the sirens.."
18.
G|--------------------|
D|--------------------|
A|-2x---2-0x----------|
E|-----2------2-5-3~--|

"Set loose so long ago.."
19.
G|---------------------------------------|
D|---------------------------------------|
A|-2222-4444-5555-7545-------------------|
E|---------------------333333333333x-----|

"Phantoms which shall forever prey.."
20.
G|---------------------------------------|
D|-----------------------------5555x-----|
A|-2222-4444-5555-7545-------------------|
E|---------------------33333333----------|

"The grains of time.." x2
21.
G|---------------------------------------|
D|---------------------------------------|
A|-2x-22x-2x-222x------------------------|
E|----------------3x-33x-3x-333x---------|

"Left behind to fight.."
22.
G|---------------------------------------|
D|---------------------------------------|
A|---------------------------------------|
E|-00000-0-0-22222-2-2-33333-3-3-5555555-|

"Hope will strike her down.."
23.
G|---------------------------------------|
D|---------------------------------------|
A|---------------------------------------|
E|-00000-0-0-22222-2-2-33333-3-3-5x------|

And ends with the chorus for a bunch of times 
^^
Have fun &  Plz rate!

_______

RaiLeff
Underground_Dora@hotmail.com

http://www.fotolog.com/raileff <-- Plz post ^^

            
            
Suggest correction
Creating personal tab
Creating personal tab
You can edit any tab online and save it as your Personal.

You can edit, replace or remove any tab part or add personal notes – all changes will be seen only by you.

Personal tabs can be accessed anytime from any device, even offline.
Learn more »
Give kudos to tab author, rate the tab!
1 2 3 4 5
comments
print report bad tab
guest
You may want to rate the tab now too:
select rating
Wanna post a correction for this tab? Suggest correction