Oops, an error
Loading. Please wait.

All Night Dance Parties In The Underground Palace bass

version 1
version 1

Whole song

Interactive

by Alesana
2,492 views 1 this week
no commentswrite comment
1 2 3 4 5
1 last vote to show rating
add to favorites
×
Save as Personal and add changes to this tab that will be seen only by you. Learn more ›
×
You can save this tab as Personal to edit and correct it or add notes. All changes will be seen only by you. Learn more »
launch autoscroll
font size
0
reset
guitar tuner
edit
Autoscroll
slow
fast
+/-
esc
set tempo
stop
Author
++++++++++++++++++++++++++++++++++++++++++++++++++++++++++++++
| Alesana- All Night Dance Parties In The Underground Palace |
++++++++++++++++++++++++++++++++++++++++++++++++++++++++++++++

"All night long I'll sing and dance with you, my sweet princess..."

Tuning: EADG 


Intro
1.
G|-----------------------------------------|
D|-----------------------------------------|
A|-2~------------------0~------------------|
E|-----------3~------------------2~--------|

Verse
"Beautiful, you know you leave me breathless when..."
2.
G|----------------------------------------------------------------------------------------------|
D|----------------------------------------------------------------------------------------------|
A|-2222-22-22222-22-2x-2x--------------------------0000-00-00000-00-0x-0x-1~--11~--11~--1-1x-1x-|
E|-------------------------3333-33-33333-33-3x-3x-----------------------------------------------|
x2

Pre-Chorus
"I know that at times it may be hard..."
3.
G|--------------------------------------------------------------------------|
D|--------------------------------------------------------------------------|
A|-22222222-22222222----------------------------------------------1~--------|
E|-------------------22222222-22222222-33333333-33333333-22222222-----------|

Chorus
"All night long I'll sing and dance with you, my sweet princess..."
4.
G|-----------------------------------------------------------------------------|
D|--------------------------------------------------------------------44444444-|
A|----------00000000-22222222-22222-0~-------------00000000--------------------|
E|-33333333-------------------------------33333333----------22222-222----------|

"I will sweep you off of your feet..."
5.
G|----------------------------------------------------------------------------|
D|----------------------------------------------------------------------------|
A|----------00000000----------22222-0~-------------00000000-------------------|
E|-33333333----------22222222-------------33333333----------22222x--22222x----|

Verse
"Every time I look at you I cant believe how magical you are..."
6.
G|----------------------------------------------------------------------------------------------|
D|----------------------------------------------------------------------------------------------|
A|-2222-22-22222-22-2x-2x--------------------------0000-00-00000-00-0x-0x-1~--11~--11~--1-1x-1x-|
E|-------------------------3333-33-33333-33-3x-3x-----------------------------------------------|

"Run away with me into a world where time seems to not exist..."
7.
G|----------------------------------------------------------------------------|
D|----------------------------------------------------------------------------|
A|-22222222-22222222-------------------0000000-00000000-1~--11~--11~--1-1x-1x-|
E|-------------------33333333-33333333----------------------------------------|

Pre-Chorus
"I know that at times it may be hard..."
8.
G|--------------------------------------------------------------------------|
D|--------------------------------------------------------------------------|
A|-22222222-22222222----------------------------------------------1~--------|
E|-------------------22222222-22222222-33333333-33333333-22222222-----------|

Chorus
"All night long I'll sing and dance with you, my sweet princess..."
9.
G|-----------------------------------------------------------------------------|
D|--------------------------------------------------------------------44444444-|
A|----------00000000-22222222-22222-0~-------------00000000--------------------|
E|-33333333-------------------------------33333333----------22222-222----------|

"I will sweep you off of your feet..."
10.
G|----------------------------------------------------------------------------|
D|----------------------------------------------------------------------------|
A|----------00000000----------22222-0~-------------00000000-------------------|
E|-33333333----------22222222-------------33333333----------22222x--22222x----|

Outro
"We stop!!!"
11.
G|---------------------------|
D|---------------------------|
A|---------------------------|
E|-xxxx-22222x--22222x--xxxx-|

Bridge
"My sweet princess I will sing and dance with you..."
12.
G|-------------------------------------------------------------------------|
D|-------------------------------------------------------------------------|
A|-22222222-22222222----------------------------------------------11111111-|
E|-------------------22222222-22222222-33333333-33333333-22222222----------|

13.
G|-------------------------------------------------------------------------|
D|-------------------------------------------------------------------------|
A|-22222222-22222222----------------------------------------------1~-------|
E|-------------------22222222-22222222-33333333-33333333-22222222----------|

14.
G|---------------------------------|
D|---------------------------------|
A|-1-1-1-1~---------------xxxxxxxx-|
E|---------------------------------|

Chorus
"All night long I'll sing and dance with you, my sweet princess..."
15.
G|-----------------------------------------------------------------------------|
D|--------------------------------------------------------------------44444444-|
A|----------00000000-22222222-22222-0~-------------00000000--------------------|
E|-33333333-------------------------------33333333----------22222-222----------|

"I will sweep you off of your feet..."
16.
G|----------------------------------------------------------------------------|
D|----------------------------------------------------------------------------|
A|----------00000000----------22222-0~-------------00000000-------------------|
E|-33333333----------22222222-------------33333333----------22222x--22222x----|

Outro
"We stop!!!"
17.
G|---------------------------|
D|---------------------------|
A|---------------------------|
E|-xxxx-22222x--22222x--xxxx-|



Lyrics: 


Beautiful, you know you leave me breathless when you fall into my eyes
My heart belongs to you my angel
There is just no reason for you to let life bring you down
Please come with me and let me show you

I know that at times it may be hard to let go of yourself
Babygirl, tonight leave your cares behind because it's time to celebrate!

All night long I'll sing and dance with you, my sweet princess, only if you trust in this
Take my hand and follow me, I will sweep you off of your feet
All night long I will sing and dance with you

Every time I look at you I can't believe how magical you are
The stars belong to you my angel
Run away with me into a world where time seems to not exist
The smile on my face will show you

This night will only end when we stop dancing

My sweet princess I will sing and dance with you all night long
The stars, they belong to you my angel



+++++++++++++++++++++++++++++++++
| RaiLeff                       |
| Underground__Dora@Hotmail.Com |
+++++++++++++++++++++++++++++++++ 

            
            
Suggest correction
Creating personal tab
Creating personal tab
You can edit any tab online and save it as your Personal.

You can edit, replace or remove any tab part or add personal notes – all changes will be seen only by you.

Personal tabs can be accessed anytime from any device, even offline.
Learn more »
Give kudos to tab author, rate the tab!
1 2 3 4 5
comments
print report bad tab
guest
You may want to rate the tab now too:
select rating
Wanna post a correction for this tab? Suggest correction