Oops, an error
Loading. Please wait.

Apology bass

version 1
version 1

Whole song

by Alesana
15,787 views 1 this week
2 commentsread comments
1 2 3 4 5
x 4
add to favorites
×
Save as Personal and add changes to this tab that will be seen only by you. Learn more ›
×
You can save this tab as Personal to edit and correct it or add notes. All changes will be seen only by you. Learn more »
launch autoscroll
font size
0
reset
guitar tuner
edit
Autoscroll
slow
fast
+/-
esc
set tempo
stop
Author
Difficulty
Alesana- Apology
Bass Tab

Standard Tuning

"You're Everything To Me" 0:44 x3
1.
G|----------------------------------|
D|----------------------------------|
A|----------------2222222-2222222---|
E|-333333-5555555-------------------|

2.
G|----------------------------------|
D|----------------------------------|
A|----------------2~----------------|
E|-333333-5555555-------------------|

"And to think..."
3.
G|----------------------------------|
D|----------------------------------|
A|----------------------------------|
E|-7/3~-5~----7~---7/3~-------------|

"This is the end!!"
4.
G|-------------|
D|-------------|
A|-------------|
E|-5555x-------|

Chorus
"I'll Loose Myself in Anguish.."
5.
G|----------------------------------|
D|----------------------------------|
A|----------------------------------|
E|-7777777-5555555-3333333-5555555--|

6.     x3
G|----------------------------------|
D|----------------------------------|
A|----------------2222222-2222222---|
E|-333333-5555555-------------------|

7.
G|----------------------------------|
D|----------------------------------|
A|----------------------------------|
E|-333333-5555555-5-2~-1/14---------|

Chorus
8.
G|----------------------------------|
D|----------------------------------|
A|----------------------------------|
E|-7777777-5555555-3333333-5555555--|

"One last false apology.."
9.
G|----------------------------------|
D|----------------------------------|
A|----------------------------------|
E|-7777777-5555555-2222222-3333333--|

Outro 2:43
10.
G|----------------|
D|-7/9~-9-7-------|
A|---------9-7----|
E|----------------|

"Urgency overwhelms.." 2:51
11.
G|----------------------------------|
D|----------------------------------|
A|-2222222-2222222------------------|
E|----------------3333333-5555555---|

"Must Restrain.."
12.
G|-------------------|
D|-------------------|
A|-------------------|
E|-7~----7/3~----5~--|

13. 3:08
G|----------------------------------------|
D|----------------------------------------|
A|----------------------------------------|
E|-3333-3333-3333-3333-5555-5555-5555-5555|

14.
G|-----------------------|
D|-----------------------|
A|-----------------------|
E|-2222-2222-2222-222----|

"I Refuse..."
15.
G|----------------------------------------|
D|----------------------------------------|
A|-2222-2222-2222-2222--------------------|
E|---------------------3333-3333-3333-3333|

16.
G|----------------------------------|
D|----------------------------------|
A|----------------------------------|
E|-5555-5555-5555-5555-222222222222-|

Chorus
17.
G|----------------------------------|
D|----------------------------------|
A|----------------------------------|
E|-7777777-5555555-3333333-5555555--|

18.
G|----------------------------------|
D|----------------------------------|
A|----------------------------------|
E|-7777777-5555555-2222222-3333333--|

"In My Mind.."
19.
G|--------------------------------------------|
D|--------------------------------------------|
A|-2222-2222-------------------------------2~-|
E|-----------3333-3333-5555-5555-2222-2222----|

Good Luck !
Questions, Comments
Suggestions whateva
Underground_Dora@hotmail.Com

            
            
Suggest correction
Creating personal tab
Creating personal tab
You can edit any tab online and save it as your Personal.

You can edit, replace or remove any tab part or add personal notes – all changes will be seen only by you.

Personal tabs can be accessed anytime from any device, even offline.
Learn more »
comments
print report bad tab
2 comments total.
0 reply
bassplayer27 312 Jun 12, 2008 05:30 PM

Pretty good for the chorus though it goes down to 2 then up to 3

0 reply
TrU MaGgOt 666 50 Sep 06, 2009 10:47 AM

seems like this isnt.. intermediate.. more like beginner

guest
You may want to rate the tab now too:
select rating
Wanna post a correction for this tab? Suggest correction