Oops, an error
Loading. Please wait.

Better Luck Next Time Prince Charming bass

version 2
version 2

Whole song

Interactive

by Alesana
102 views 1 this week
no commentswrite comment
1 2 3 4 5
3 more votes to show rating
add to favorites
×
Save as Personal and add changes to this tab that will be seen only by you. Learn more ›
×
You can save this tab as Personal to edit and correct it or add notes. All changes will be seen only by you. Learn more »
launch autoscroll
font size
0
reset
guitar tuner
edit
Autoscroll
slow
fast
+/-
esc
set tempo
stop
Artist: Alesana
Song: Better Luck Next Time, Prince Charming
Album:Where Myth Fades to Legend
Tuning: Drop 'D' (G,D,A,D)

(0:00 - 0:20)
G |---------------------------|
D |---------------------------|
A |---------------------------|
D |-55---55---1~---33--33--11-|(Repeat)

(0:20 - 0:41)
...Shadows dance around me as I race alone...
|---------------------------------------------------------------------|
|---------------------------------------------------------------------|
|---------------------------------------------------------------------|
|-55555555555555555555555555555555-3333333333333333333333333333333----|

|---------------------------------------------------------------------|
|---------------------------------------------------------------------|
|---------------------------------------------------------------------|
|-11111111111111111111111111111111-0000000000000000--1111111111111111-|

(0:41 - 0:55)
...A simple kiss to bring her back...
|---------------------------------------------------|
|---------------------------------------------------|
|-1~------------------0~---1~------------0~------1~-|
|---------0~------5~------------------5~------------|

(0:56 - 1:14)
...Not all knights in shining armor...
|-----------------------------------|
|-----------------------------------|
|-1111111111111111-3333333333333333-|
|-----------------------------------|

|-----------------------------------|
|-----------------------------------|
|-----------------------------------|
|-000000000000000000000000-22222222-| (Repeat)

(1:14 - 1:36)
...Come and claim your queen...
|-----------------------------------|           |----|
|-----------------------------------|           |----|
|-----------------------------------|           |----|
|-11-xxxxx-11-xxxxx-55-xxxxxxxxx----|(Repeat x3)|--3-|(last time at the end)

(1:37 - 1:54)
...Not all knights in shining armor...
|-----------------------------------|
|-----------------------------------|
|-1111111111111111-3333333333333333-|
|-----------------------------------|

|-----------------------------------|
|-----------------------------------|
|-----------------------------------|
|-000000000000000000000000-22222222-| (Repeat)

(1:54 - 1:57)
...Come and claim your queen!...
|----------------------|
|----------------------|
|-1------1-----3---0---|
|----------------------|

(2:01 - 2:05)
((Build up.))
...random growl...
|---------------------------|
|---------------------------|
|---------------------------|
|-000000000000000000000000--|

(2:06 - 2:25)
...She had faith in me, I was her only escape...
|-----------------------------------|
|-----------------------------------|
|-1111111111111111-3333333333333333-|
|-----------------------------------|

|-----------------------------|
|-----------------------------|
|-------------------------3-1-|
|-0-00-0-0-0000-0-00-0-00-----| (Repeat)

(2:25 - 2:40)
...A simple kiss to bring her back...
|---------------------------------------------------|
|---------------------------------------------------|
|-1~------------------0~---1~------------0~------1~-|
|---------0~------5~------------------5~------------|

(2:40 - 3:15)
...Not all knights in shining armor...
|-----------------------------------|
|-----------------------------------|
|-1111111111111111-3333333333333333-|
|-----------------------------------|

|-----------------------------------|
|-----------------------------------|
|-----------------------------------|
|-000000000000000000000000-22222222-| (Repeat x2)

(3:15 - 3:18)
...Come and claim your queen!...
|-------------|
|-------------|
|-1----1----3-|
|-------------|


Annnnd that's all! any questions, feel free to email me at;
shepherds.pie@hotmail.com
c: thanks.

            
            
Suggest correction
Creating personal tab
Creating personal tab
You can edit any tab online and save it as your Personal.

You can edit, replace or remove any tab part or add personal notes – all changes will be seen only by you.

Personal tabs can be accessed anytime from any device, even offline.
Learn more »
Give kudos to tab author, rate the tab!
1 2 3 4 5
comments
print report bad tab
guest
You may want to rate the tab now too:
select rating
Wanna post a correction for this tab? Suggest correction