Oops, an error
Loading. Please wait.

Congratulations I Hate You tab

version 3
version 3

Whole song

Interactive

by Alesana
4,060 views 1 this week
1 commentread comment
1 2 3 4 5
1 last vote to show rating
add to favorites
×
Save as Personal and add changes to this tab that will be seen only by you. Learn more ›
×
You can save this tab as Personal to edit and correct it or add notes. All changes will be seen only by you. Learn more »
launch autoscroll
font size
0
reset
how to read this tab
guitar tuner
edit
Autoscroll
slow
fast
+/-
esc
set tempo
stop
Author
Don't know if the solo or the bridge is right, but atleast I know everything is right... oh well.

~ - Ring
* - Palm Mute

Intro

E|-----------------------------------|
B|-----------------------------------|
G|---------------------10~-------9~--|
D|---10~-----10~-----10--------10----|
A|--8-------0-------8---------0------|
D|-8-------0-------8---------0-------|

E|-----------------------------------|
B|-----------------------------------|
G|-----------------------------------|
D|-8~--------0~---------8~---------0~|
A|-8~--------0~---------8~---------0~|
D|-8~--------0~---------8~---------0~|


"No ever said that life was fair..."  (The last note is a hard strum)
E|---------------------------------------------|
B|---------------------------------------------|
G|---------------------------------------------|
D|-8---------0----------8-------0----0-0-0-0--0|
A|-8x32------0x32-------8x32----0x16-0-0-0-0--0|
D|-8---------0----------8-------0----0-0-0-0--0|


"Taste your vanity and sweet bitterness..."
E|-------------------------------------------------|
B|-------------------------------------------------|
G|-------------------------------------------------|
D|-8-8--8-8--8--8-8--8-8--0--0-0--0-0--0--0-0--0-0-|
A|-8-8--8-8--8--8-8--8-8--0--0-0--0-0--0--0-0--0-0-|
D|-8-8--8-8--8--8-8--8-8--0--0-0--0-0--0--0-0--0-0-|


"My stolen hopes and lost dreams..."
E|---------------------|
B|---------------------|
G|---------------------|
D|-8---------0---------|
A|-8x32------0x32------|
D|-8---------0---------|


"You...took...them...all..."
E|---------------------|
B|---------------------|
G|---------------------|
D|-0~----0~----0~----0~|
A|-0~----0~----0~----0~|
D|-0~----0~----0~----0~|

"As you build your dreams..."
E|------------------------------------------------------|
B|------------------------------------------------------|
G|------------------------------------------------------|
D|-8--8-8-8-8-8--8-8-8-8-8--8-8-8--8-8-8-8-8--8-8-8-8-8-|
A|-8--8-8-8-8-8--8-8-8-8-8--8-8-8--8-8-8-8-8--8-8-8-8-8-|
D|-8--8-8-8-8-8--8-8-8-8-8--8-8-8--8-8-8-8-8--8-8-8-8-8-|
   *  * * * * *  * * * * *  * * *  * * * * *  * * * * *

"I'll look back on a day once loved..."
E|----------------------------------------------------------|
B|----------------------------------------------------------|
G|----------------------------------------------------------|
D|-8-8-0--0-0-0-0-0--0-0-0-0-0--0-0-0--0-0-0-0-0--0-0-0-0-0-|
A|-8-8-0--0-0-0-0-0--0-0-0-0-0--0-0-0--0-0-0-0-0--0-0-0-0-0-|
D|-8-8-0--0-0-0-0-0--0-0-0-0-0--0-0-0--0-0-0-0-0--0-0-0-0-0-|
   * * *  * * * * *  * * * * *  * * *  * * * * *  * * * * *

"And fantasize for tragedy..."
E|----------------------------------------------------------|
B|----------------------------------------------------------|
G|----------------------------------------------------------|
D|-0-0-7--7-7-7-7-7--7-7-7-7-7--7-7-7--7-7-7-7-7--7-7-7-7-7-|
A|-0-0-7--7-7-7-7-7--7-7-7-7-7--7-7-7--7-7-7-7-7--7-7-7-7-7-|
D|-0-0-7--7-7-7-7-7--7-7-7-7-7--7-7-7--7-7-7-7-7--7-7-7-7-7-|
   * * *  * * * * *  * * * * *  * * *  * * * * *  * * * * *
                        "Swallow you pride"
E|---------------------|
B|---------------------|
G|---------------------|
D|-7-7-8----8-8--10-10-|
A|-7-7-8x16-8-8--10-10-|
D|-7-7-8----8-8--10-10-|
   * * *    * *   *  *

Chorus
"Beg me to make this easier..."
E|---------------------------------|
B|---------------------------------|
G|---------------------------------|
D|-8----0----7----8-----8-8--10-10-|
A|-8x32-0x32-7x32-8X16--8-8--10-10-|
D|-8----0----7----8-----8-8--10-10-|
                        * *   *  *

"Suffer alone in emptiness..."
E|--------|
B|--------|
G|--------|
D|---0~---|
A|---0~---|
D|---0~---|

"I lust to see you swallowed by..."
E|-----------------------------------------------------|
B|-----------------------------------------------------|
G|-----------------------------------------------------|
D|-8-8-8-8-----7-7-7-7-----12-12-12-12-----10-10-10-10-| X2
A|-8-8-8-8-----7-7-7-7-----12-12-12-12-----10-10-10-10-|
D|-8-8-8-8-----7-7-7-7-----12-12-12-12-----10-10-10-10-|
   * * * *     * * * *      *  *  *  *      *  *  *  *

E|------------|
B|------------|
G|------------|
D|-8-8--10-10-|
A|-8-8--10-10-|
D|-8-8--10-10-|
   * *   *  *

Chorus
"Beg me to make this easier..."
E|---------------------|
B|---------------------|
G|---------------------|
D|-8----0----7----8----|
A|-8x32-0x32-7x32-8x24-|
D|-8----0----7----8----|

"Send stares into your meaningless eyes..."
E|--------------------------------------------|
B|--------------------------------------------|
G|--------------------------------------------|
D|-8--8-8--8--8--8-8--8--0--0-0--0--0--0-0--0-|
A|-8--8-8--8--8--8-8--8--0--0-0--0--0--0-0--0-|
D|-8--8-8--8--8--8-8--8--0--0-0--0--0--0-0--0-|

E|---------------------------------|
B|---------------------------------|
G|---------------------------------|
D|-7--7-7--7--7--7-7--7--8--8-8--8-|
A|-7--7-7--7--7--7-7--7--8--8-8--8-|
D|-7--7-7--7--7--7-7--7--8--8-8--8-|

E|----------------|
B|----------------|
G|----------------|
D|-8-8--10-10--0~-|
A|-8-8--10-10--0~-|
D|-8-8--10-10--0~-|
   * *   *  *

Solo
E|----------------------------------|
B|----------------------------------|
G|----------------------------------|
D|----------------------------------|
A|----------------------------------|
D|-0-0-10-0-8-8-0-12-0-0-10-0-8-8-7~|

E|-------------------------------------------|
B|-------------------------------------------|
G|-------------------------------------------|
D|-------------------------------------------|
A|-------------------------------------------|
D|-0-0-10-0-8-8-0-12-0-0-10-0-0~-0-10-10-8-7-|

"MY!"
E|-------------------|
B|-------------------|
G|-------------------|
D|-0~-------10-8-8-7-|
A|-0~-------10-8-8-7-|
D|-0~-------10-8-8-7-|

"Envy can't describe how I loathe you..."
E|----------------------------------------------------------------------|
B|----------------------------------------------------------------------|
G|----------------------------------------------------------------------|
D|-0-0-0-0-0-0-0--0-0-0-0-0-0-0-0--0-0-0-0-0-0-0-0--0-0-0-0-0--10-8-8-7-|X4
A|-0-0-0-0-0-0-0--0-0-0-0-0-0-0-0--0-0-0-0-0-0-0-0--0-0-0-0-0--10-8-8-7-|
D|-0-0-0-0-0-0-0--0-0-0-0-0-0-0-0--0-0-0-0-0-0-0-0--0-0-0-0-0--10-8-8-7-|
   * * * * * *    * * * * * * *    * * * * * * *    * * * * 

"As you build your dreams..."
E|------------------------------------------------------|
B|------------------------------------------------------|
G|------------------------------------------------------|
D|-8--8-8-8-8-8--8-8-8-8-8--8-8-8--8-8-8-8-8--8-8-8-8-8-|
A|-8--8-8-8-8-8--8-8-8-8-8--8-8-8--8-8-8-8-8--8-8-8-8-8-|
D|-8--8-8-8-8-8--8-8-8-8-8--8-8-8--8-8-8-8-8--8-8-8-8-8-|
   *  * * * * *  * * * * *  * * *  * * * * *  * * * * *

"I'll look back on a day once loved..."
E|----------------------------------------------------------|
B|----------------------------------------------------------|
G|----------------------------------------------------------|
D|-8-8-0--0-0-0-0-0--0-0-0-0-0--0-0-0--0-0-0-0-0--0-0-0-0-0-|
A|-8-8-0--0-0-0-0-0--0-0-0-0-0--0-0-0--0-0-0-0-0--0-0-0-0-0-|
D|-8-8-0--0-0-0-0-0--0-0-0-0-0--0-0-0--0-0-0-0-0--0-0-0-0-0-|
   * * *  * * * * *  * * * * *  * * *  * * * * *  * * * * *

"And fantasize for tragedy..."
E|----------------------------------------------------------|
B|----------------------------------------------------------|
G|----------------------------------------------------------|
D|-0-0-7--7-7-7-7-7--7-7-7-7-7--7-7-7--7-7-7-7-7--7-7-7-7-7-|
A|-0-0-7--7-7-7-7-7--7-7-7-7-7--7-7-7--7-7-7-7-7--7-7-7-7-7-|
D|-0-0-7--7-7-7-7-7--7-7-7-7-7--7-7-7--7-7-7-7-7--7-7-7-7-7-|
   * * *  * * * * *  * * * * *  * * *  * * * * *  * * * * *
            "Swallow you pride"
E|----------------------|
B|----------------------|
G|----------------------|
D|-7-7-8-----8-8--10-10-|
A|-7-7-8x16--8-8--10-10-|
D|-7-7-8-----8-8--10-10-|
   * * *     * *   *  *

Chorus
"Beg me to make this easier..."
E|---------------------|
B|---------------------|
G|---------------------|
D|-8----0----7----8----|
A|-8x32-0x32-7x32-8X24-|
D|-8----0----7----8----|

"Send stares into your meaningless eyes..."
E|--------------------------------------------|
B|--------------------------------------------|
G|--------------------------------------------|
D|-8--8-8--8--8--8-8--8--0--0-0--0--0--0-0--0-|
A|-8--8-8--8--8--8-8--8--0--0-0--0--0--0-0--0-|
D|-8--8-8--8--8--8-8--8--0--0-0--0--0--0-0--0-|

E|-----------------------------------|
B|-----------------------------------|
G|-----------------------------------|
D|-7--7-7--7--7--7-7--7--8--8-8--8-8-|
A|-7--7-7--7--7--7-7--7--8--8-8--8-8-|
D|-7--7-7--7--7--7-7--7--8--8-8--8-8-|

 "EYES!"
E|-----|
B|-----|
G|-----|
D|--0~-|
A|--0~-|
D|--0~-|

            
            
Suggest correction
Creating personal tab
Creating personal tab
You can edit any tab online and save it as your Personal.

You can edit, replace or remove any tab part or add personal notes – all changes will be seen only by you.

Personal tabs can be accessed anytime from any device, even offline.
Learn more »
Give kudos to tab author, rate the tab!
1 2 3 4 5
comments
print report bad tab
1 comment total.
+1 reply
jjkkllmmnn 166 Feb 16, 2011 04:21 PM

e|--------------------------------
B|--------------------------------
G|---------------10~----9~--------
D|----10~--10--10-----10----------
A|---8----8---8------8------------
D|--8----0---8------0-------------

(keep the 8 on the a string the whole time)

guest
You may want to rate the tab now too:
select rating
Wanna post a correction for this tab? Suggest correction