Oops, an error
Loading. Please wait.

Curse Of The Virgin Canvas bass

version 1
version 1

Whole song

Interactive

by Alesana
2,646 views 1 this week
no commentswrite comment
1 2 3 4 5
2 more votes to show rating
add to favorites
×
Save as Personal and add changes to this tab that will be seen only by you. Learn more ›
×
You can save this tab as Personal to edit and correct it or add notes. All changes will be seen only by you. Learn more »
launch autoscroll
font size
0
reset
guitar tuner
edit
Autoscroll
slow
fast
+/-
esc
set tempo
stop
Author
+++++++++++++++++++++++++++++++++++++++
| Alesana- Curse Of The Virgin Canvas |
+++++++++++++++++++++++++++++++++++++++


"My angel lie to me..."

Tuning: Drop D (DADG)


Intro
1.
G|-------------------------------------------------------------------------------------|
D|-------------------------------------------------------------------------------------|
A|-----------3~----0~----1~--------3~------------------3~----0~----1~--------3~---3333-|
D|-0~----------------------------------------0~----------------------------------------|

Verse
"This is a nightmare..."
2.
G|-------------------------------------------------------------|
D|-------------------------------------------------------------|
A|--------------------------1-1111111-11111110-0000004-4444444-|
D|-0~-0x--------0~-0x------------------------------------------|

"Her body teases me..."
3.
G|------------------------------------------------------------------------------|
D|------------------------------------------------------------------------------|
A|-------------------------------------------1-1111111-11111110-0000004-4444444-|
D|-0~-0x-0x-0x-0x-0x-0~-0~-0x-0x-0x-0x-0x-0~------------------------------------|

Pre-Chorus
"Baby, lay in my arms..."
4.
G|----------------------------------------------------------------------------------|
D|----------------------------------------------------------------------------------|
A|-1~--------3~--------5~--------0~--------0--1~--------3~--------------------------|
D|-------------------------------------5~-------------------------0~----------------|

Chorus
"My angel lie to me..."
5.
G|-------------------------------------------------------------------------|
D|-------------------------------------------------------------------------|
A|-------------------33333333-00000000-11111111-11111111-33333333-33333333-|
D|-00000000-00000000-------------------------------------------------------|

"A girl like you will always be..."
6.
G|---------------------------------------------------------------------------------------|
D|-7p0-5p0-3p0-5p0-7p0-5p0-3p0-5p0-------------------------------------------------------|
A|---------------------------------33333333-00000000-11111111-11111111-33333333-33333333-|
D|---------------------------------------------------------------------------------------|

Verse
"I watch the blood drip..."
7.
G|-------------------------------------------------------------|
D|-------------------------------------------------------------|
A|--------------------------1-1111111-11111110-0000004-4444444-|
D|-0~-0x--------0~-0x------------------------------------------|

"Im starting to believe..."
8.
G|------------------------------------------------------------------------------|
D|------------------------------------------------------------------------------|
A|-------------------------------------------1-1111111-11111110-0000004-4444444-|
D|-0~-0x-0x-0x-0x-0x-0~-0~-0x-0x-0x-0x-0x-0~------------------------------------|

Pre-Chorus
"Baby, lay in my arms..."
9.
G|----------------------------------------------------------------------------------|
D|----------------------------------------------------------------------------------|
A|-1~--------3~--------5~--------0~--------0--1~--------3~--------------------------|
D|-------------------------------------5~-------------------------0~----------------|

Chorus
"My angel lie to me..."
10.
G|-------------------------------------------------------------------------|
D|-------------------------------------------------------------------------|
A|-------------------33333333-00000000-11111111-11111111-33333333-33333333-|
D|-00000000-00000000-------------------------------------------------------|

"A girl like you will always be..."
11.
G|---------------------------------------------------------------------------------------|
D|-7p0-5p0-3p0-5p0-7p0-5p0-3p0-5p0-------------------------------------------------------|
A|---------------------------------33333333-00000000-11111111-11111111-33333333-33333333-|
D|---------------------------------------------------------------------------------------|

Outro
"Sweet revenge..."
12.
G|-----------------------------------------------------|
D|-----------------------------------------------------|
A|-----------------------------------------------------|
D|-0x----0x----0x----0x----000000-000000-000000-000000-|

Bridge
"Empty eyes accuse..."
13.
G|-----------------------------------------|
D|-----------------------------------------|
A|-0~--------0~----------------------------|--x2
D|---------------------0~--------3~--------|

14.
G|---------------------------------------------------|
D|---------------------------------------------------|
A|-0~--------0~--------------------------------------|
D|-----------------5~----0~--------33333333-33333333-|

"So terribly memory returns of her struggle..."
15.
G|------------------------------------------------------------------------------------|
D|------------------------------------------------------------------------------------|
A|-0000x--0000x--0x-0x--0000x--0000x--0x-0x-------------------------------------------|--x2
D|-------------------------------------------0000x--0000x--0x-0x--3333x--3333x--3x-3x-|

Pre-Chorus
"Such an awful memory..."
16.
G|----------------------------------------|
D|----------------------------------------|
A|-1~--------3~---------------------------|
D|---------------------0~-----------------|

Chorus
"My angel lie to me..."
17.
G|-------------------------------------------------------------------------|
D|-------------------------------------------------------------------------|
A|-------------------33333333-00000000-11111111-11111111-33333333-33333333-|
D|-00000000-00000000-------------------------------------------------------|

"A girl like you will always be..."
18.
G|---------------------------------------------------------------------------------------|
D|-7p0-5p0-3p0-5p0-7p0-5p0-3p0-5p0-------------------------------------------------------|
A|---------------------------------33333333-00000000-11111111-11111111-33333333-33333333-|
D|---------------------------------------------------------------------------------------|

Outro
19.
G|-----------------------------------------------------|
D|-----------------------------------------------------|
A|-----------------------------------------------------|
D|-0x----0x----0x----0x----000000-000000-000000-000000-|


Lyrics:

I am here to tell you a story
A story that will torture your thoughts by day and poison your dreams by night
And though I will do my best, there are no words
that can be written nor brush strokes laid on canvas
that can describe the stark and utter horror of the night that Annabel died.
The emptiness will haunt you.

This is a nightmare, is my Annabel really gone?
My eyes are stung by daylight, I find it hard to breathe.
Her body teases me as the sun reveals the dawn.
The smell of blood still crawls, I kiss you softly goodbye.

Baby, lay in my arms and cuddle me close.
Soon this will be just an awful memory...
Will I ever be able to sleep again?

My angel lie to me and tell me I'm dreaming
please wake me up, please wake me
A girl like you will always be such a tragic part of me
oh ecstasy you torture me

I watch the blood drip from the corners of your mouth.
Your icy flesh is lying, your pallid skin still glows.
I'm starting to believe what my eyes are seeing now.
You're still so beautiful and yet so morbidly still.

Sweet revenge... He will pay, he will pay my dear.
Empty eyes accuse a face so evil, I'm coming undone.
The mirror says it all, a crimson story of innocence lost.
Empty eyes accuse a face so evil, I'm coming undone.
What have I done to her?

So terribly memory returns of her struggle, of her screams, of her.
Lord forgive me!
My stomach heaves as I see the blood that covers me.
Blood that was once hers.
I'm a monster!

A mirror never lies, they know
Everybody knows
Do you not see what they see?
A mirror never lies
I see what they see. Everybody knows. Everybody knows



+++++++++++++++++++++++++++++++++
| RaiLeff                       |
| Underground__Dora@Hotmail.Com |
+++++++++++++++++++++++++++++++++

            
            
Suggest correction
Creating personal tab
Creating personal tab
You can edit any tab online and save it as your Personal.

You can edit, replace or remove any tab part or add personal notes – all changes will be seen only by you.

Personal tabs can be accessed anytime from any device, even offline.
Learn more »
Give kudos to tab author, rate the tab!
1 2 3 4 5
comments
print report bad tab
guest
You may want to rate the tab now too:
select rating
Wanna post a correction for this tab? Suggest correction