Oops, an error
Loading. Please wait.

Heavy Hangs The Albatross bass

by Alesana
1,904 views 3 this week
no commentswrite comment
1 2 3 4 5
2 more votes to show rating
add to favorites
×
Save as Personal and add changes to this tab that will be seen only by you. Learn more ›
×
You can save this tab as Personal to edit and correct it or add notes. All changes will be seen only by you. Learn more »
launch autoscroll
font size
0
reset
guitar tuner
edit
Autoscroll
slow
fast
+/-
esc
set tempo
stop
Author
++++++++++++++++++++++++++++++++++++++
| Alesana- Heavy Hangs The Albatross |
++++++++++++++++++++++++++++++++++++++


"My heart belongs to the one I am chasing after..."

Tuning: Drop D (DADG)


Verse
"I've made up my mind..."
1.
G|---------------------------------------------------------------------|
D|---------------------------------------------------------------------|
A|---------------------------------2~----------------------------------|
D|----------------0~---------------------------------0~----------------|

"Women will shriek..."
2.
G|-------------------------------------------------------------------------|
D|-------------------------------------------------------------------------|
A|-22222222-22222222-22222222-22222222-------------------------------------|
D|-------------------------------------55555555-55555555-55555555-55555555-|

"Because tonight..."
3.
G|-------------------------------------------------------------------------|
D|-------------------------------------------------------------------------|
A|-00000000-00000000-00000000-00000000-------------------------------------|
D|-------------------------------------44444444-44444444-44444444-44444444-|

"I have to let go of..."
4.
G|-------------------------------------------------|
D|-------------------------------------------------|
A|-2~----2~----------------------------0~----2~----|
D|-------------0~----0~----5~----5~----------------|

Pre-Chorus
"There's nothing left for me to lose..."
5.
G|------------------------------------------------------------------------------|
D|------------------------------------------------------------------------------|
A|------------------0-0000000-0000000-2~-22220x---2~-222------2~-22220x---------|
D|-5-5555555-5555555------------------------------------55x-------------4444444-|

"There's no one left to talk me down..."
6.
G|---------------------------------------|
D|---------------------------------------|
A|------------------0-00000000~x---------|
D|-5-5555555-5555555---------------------|

Chorus
"One day oh I hope my name..."
7.
G|-------------------------------------------------------------------|
D|-------------------------------------------------------------------|
A|-2-2-2~--------------------------------------0--0-0~----1--1-1~----|--x2
D|---------------4--4-4~--------5--5-5~------------------------------|

Outro
"For better or even for worse..."
8.
G|----------------------------------------|
D|----------------------------------------|
A|-----------0~---------------------------|
D|-5~-----------------44444444-4444-4x-4x-|

Verse
"Now the only question left is how..."
9.
G|------------------------------------------------------------------------|
D|------------------------------------------------------------------------|
A|-22222222-22222222-------------------00000000-00000000------------------|
D|-------------------55555555-55555555-------------------44444444-4-4-4-4-|

"Dead will choke the streets..."
10.
G|------------------------------------------------------------------|
D|------------------------------------------------------------------|
A|-2-2-2-2-2-2-2-2-----------------0-0-0-0-0-0-0-0------------------|
D|-----------------5-5-5-5-5-5-5-5-----------------44444444-4444444-|

Pre-Chorus
"There's nothing left for me to lose..."
11.
G|------------------------------------------------------------------------------|
D|------------------------------------------------------------------------------|
A|------------------0-0000000-0000000-2~-22220x---2~-222------2~-22220x---------|
D|-5-5555555-5555555------------------------------------55x-------------4444444-|

"There's no one left to talk me down..."
12.
G|---------------------------------------|
D|---------------------------------------|
A|------------------0-00000000~x---------|
D|-5-5555555-5555555---------------------|

Chorus
"One day oh I hope my name..."
13.
G|-------------------------------------------------------------------|
D|-------------------------------------------------------------------|
A|-2-2-2~--------------------------------------0--0-0~----1--1-1~----|--x2
D|---------------4--4-4~--------5--5-5~------------------------------|

Outro
"For better or even for worse..."
14.
G|---------------------------------------|
D|---------------------------------------|
A|-----------0~--------------------------|
D|-5~------------------4~----------------|

Bridge
"The dizziness stuns me..."
15.
G|-------------------------------------------------------------------------|
D|-------------------------------------------------------------------------|
A|-------------------00000000-00000000-22222222-22222222-22222222-22222222-|
D|-55555555-55555555-------------------------------------------------------|

16.
G|-------------------------------------------------------------------------|
D|-------------------------------------------------------------------------|
A|-------------------00000000-00000000-22222222-22222222-22222222-2~-------|
D|-55555555-55555555-------------------------------------------------------|

Chorus
"One day oh I hope my name..."
17.
G|-------------------------------------------------------------------|
D|-------------------------------------------------------------------|
A|-2-2-2~--------------------------------------0--0-0~----1--1-1~----|--x2
D|---------------4--4-4~--------5--5-5~------------------------------|

Outro
"For better or even for worse..."
18.
G|----------------------------------------------------------|
D|----------------------------------------------------------|
A|-----------0~---------------------------2~----------------|
D|-5~------------------4~-----------------------------------|



Lyrics:

I've made up my mind and I will be leaving.
Leaving this cruel, dark world
for the soulless to share.
But first...

Women will shriek and watch their husbands bleed.
Child will cry 
and watch their mothers die.
Because tonight 
Tonight we all go to hell! Why?

I have to let go of what happened to my love.
I am taking out on everyone else
all the problems I've brought on myself.
When I made your heart melt.
My belle, we soon will meet again.

There's nothing left for me to lose
Except confusion.
I'm finished trying to tell myself this will go away.
There's no one left to talk me down.
My feet are slipping...

One day oh I hope my name doesn't bring back memories.
Of the day that I left her.
Goodbye, so long.
My heart belongs to the one I am chasing after.
For better, or even for worse,
Remember me forever...

Now the only question left is how
to take you all down with me.
The coroner will have his hands full tonight.
That is if he is not among the dead.

Dead will choke the streets with such vulgarity that grown men will weep.
And then you will find the end is drawing night.

The dizziness stuns me,
Would someone please distract me?
Can I really get through this?
Can I really betray myself?
For better, for worse, remember forever

(There's sweat on my hands and a knife at my throat.)
The dizziness stuns me,
Would someone please distract me?
(And as the blade bites my skin Annabel appears...)
Can I really get through this?
Can I really betray myself?
For better, for worse, remember forever
(For better, or for worse, remember me forever)



+++++++++++++++++++++++++++++++++
| RaiLeff                       |
| Underground__Dora@Hotmail.Com |
+++++++++++++++++++++++++++++++++

            
            
Suggest correction
Creating personal tab
Creating personal tab
You can edit any tab online and save it as your Personal.

You can edit, replace or remove any tab part or add personal notes – all changes will be seen only by you.

Personal tabs can be accessed anytime from any device, even offline.
Learn more »
Give kudos to tab author, rate the tab!
1 2 3 4 5
comments
print report bad tab
guest
You may want to rate the tab now too:
select rating
Wanna post a correction for this tab? Suggest correction