Oops, an error
Loading. Please wait.

Hymn For The Shameless bass

version 1
version 1

Whole song

Interactive

by Alesana
2,735 views 1 this week
no commentswrite comment
1 2 3 4 5
3 more votes to show rating
add to favorites
×
Save as Personal and add changes to this tab that will be seen only by you. Learn more ›
×
You can save this tab as Personal to edit and correct it or add notes. All changes will be seen only by you. Learn more »
launch autoscroll
font size
0
reset
guitar tuner
edit
Autoscroll
slow
fast
+/-
esc
set tempo
stop
+++++++++++++++++++++++++++++++++++
| Alesana- Hymn For The Shameless |
+++++++++++++++++++++++++++++++++++

"A love like this can never truly die..."

Tuning: Drop D (DADG)


Verse
"So now the show's over..."
1.
G|---------------------------------------------------------------------------------------------|
D|---------------------------------------------------------------------------------------------|
A|-------------------0~--1--------------1~-0~-------------------0~--1--------------1~-0~-5~-3~-|
D|-00-000-00-00-00-0-------00-000-00-00-------00-000-00-00-00-0-------00-000-00-00-------------|

Pre-Chorus
"Calm consumes me..."
2.
G|---------------------|
D|---------------------|
A|-1x--------3x--------|
D|---------------------|

Chorus
"I shut my eyes and once again..."
3.
G|-----------------------------------------------------------------------------------------|
D|-----------------------------------------------------------------------------------------|
A|-------------------0~----1~----------------5~----3~--------1~----0~----------------------|--x2
D|-0~--------------------------------------------------------------------0~----------------|

Verse
"I am the face of death..."
4.
G|-------------------------------------------------|
D|-------------------------------------------------|
A|-------------------------------------------------|
D|-------------------------------------------8-5-7-|

"Yet you're oblivious..."
5.
G|-------------------------------------------------|
D|-------------------------------------------------|
A|-------------------------------------------------|--x3
D|-0000-00000-0000-00000-0000-00000-0000-000-8-5-7-|

"I am the chosen one..."
6.
G|---------------------------------------------------|
D|---------------------------------------------------|
A|---------------------------------------------------|
D|-0000-00000-0000-00000-0000-00000-0000-000-8-5-7-5-|

Pre-Chorus
"Calm consumes me..."
7.
G|---------------------|
D|---------------------|
A|-1x--------3x--------|
D|---------------------|

Chorus
"I shut my eyes and once again..."
8.
G|-----------------------------------------------------------------------------------------|
D|-----------------------------------------------------------------------------------------|
A|-------------------0~----1~----------------5~----3~--------1~----0~----------------------|--x2
D|-0~--------------------------------------------------------------------0~----------------|

Bridge
"Saw your eyes today..."
9.
G|-------------------------------------------------------------------------------|
D|-------------------------------------3~-------------------------------2~-------|
A|-1~----------------------------------------1~----------------------------------|--x2
D|-------------------0~---------------------------------------0~-----------------|

Bass Solo
10.
G|-----------------------------------------------------------------------------|
D|-----------------------------------------------------------------------------|
A|-----------------------------------------------------------------------------|
D|-00-0-0-0-0-0-0h2-00-0-0-0-0-0x--------00-0-0-0-0-0-0h2-00-0-0-0-0-0x--------|

"Behold!!"
11.
G|-----------------------------------------------------------------------------|
D|-----------------------------------------------------------------------------|
A|-----------------------------------------------------------------------------|
D|-00-0-0-0-0-0-0h2-00-0-0-0-0-0x--------00-0-0-0-0-0-0h2-00-0-0-0-0-0x--------|

"Beg for the mercy..."
12.
G|-----------------------------------------------------------------------------------------------|
D|-----------------------------------------------------------------------------------------------|
A|-----------------------------------------------------------------------------------------------|
D|-00x-0x-0x-0x-0x-0x-00x-00x-0x-0x-0x-0x-0x--------00x-0x-0x-0x-0x-0x-00x-00x-0x-0x-0x-0x-0x----|

Pre-Chorus
"As relief washes over me..."
13.
G|--------------------------------------------------------------|
D|--------------------------------------------------------------|
A|-1~--------3~------------------0~---------1~--------3~--------|
D|---------------------0~---------------------------------------|

Chorus
"I shut my eyes and once again..."
14.
G|-----------------------------------------------------------------------------------------|
D|-----------------------------------------------------------------------------------------|
A|-------------------0~----1~----------------5~----3~--------1~----0~----------------------|-Until
D|-0~--------------------------------------------------------------------0~----------------| fades


Please rate!


Lyrics:

Saw your eyes today in a memory painted in the sky.
You smiled and said to me, "a love like this can never truly die."

So now the show's over and I've got to disguise the thing I've become.
I only wish I could stop laughing!
I grin because the joke is on them this time!
They don't have a clue.

Calm consumes me.

(I immerse myself in sick reflection...)
I shut my eyes and once again the pleasure strangles me.
I taste the tears of sweet indulgence, pain and fantasy.
Oh, the visions inside my head...
The emptiness will haunt you...

(I immerse myself in sick reflection...)
Sanity is slowly slipping from my hands now.
I'm standing closer to the edge than I should be allowed.
Oh, what little regret I have...
Does that make me a killer?

I am the face of death standing right behind you.
Yet you're oblivious to my cold breath on your neck.
Is it just too easy?
Am I just too good at this?
I am the chosen one.
I am the end of all and now you are mine!

Let's just say you're right and the nightmare ends, we wake up side by side.
What makes you think that I would let you live?
I've really lost my mind...

Behold, for I am the will of the reaper!
Beg for the mercy of your worthless angels!

As relief washes over me, calm consumes me.



+++++++++++++++++++++++++++++++++
| RaiLeff                       |
| Underground__Dora@Hotmail.Com |
+++++++++++++++++++++++++++++++++

            
            
Suggest correction
Creating personal tab
Creating personal tab
You can edit any tab online and save it as your Personal.

You can edit, replace or remove any tab part or add personal notes – all changes will be seen only by you.

Personal tabs can be accessed anytime from any device, even offline.
Learn more »
Give kudos to tab author, rate the tab!
1 2 3 4 5
comments
print report bad tab
guest
You may want to rate the tab now too:
select rating
Wanna post a correction for this tab? Suggest correction