Oops, an error
Loading. Please wait.

In Her Tomb By The Sounding Sea bass

by Alesana
890 views 3 this week
no commentswrite comment
1 2 3 4 5
3 more votes to show rating
add to favorites
×
Save as Personal and add changes to this tab that will be seen only by you. Learn more ›
×
You can save this tab as Personal to edit and correct it or add notes. All changes will be seen only by you. Learn more »
launch autoscroll
font size
0
reset
guitar tuner
edit
Autoscroll
slow
fast
+/-
esc
set tempo
stop
++++++++++++++++++++++++++++++++++++++++++++
| Alesana- In Her Tomb By The Sounding Sea |
++++++++++++++++++++++++++++++++++++++++++++


"Whisper softly and tell me that you love me..."

Tuning: Drop D (DADG)


Intro
"So Im thinking we should maybe..."
1.
G|----------------------------------------------------------------------|
D|----------------------------------------------------------------------|
A|--00x---------------000x---------------0------------------------------|
D|-5--------------------------------------33x---------------355x--------|

"I will save  your life..."
2.
G|--------------------------------------------------------------------------------|
D|--------------------------------------------------------------------------------|
A|--00x-000x-000x-000x-000x-000x-000x-000x-0--------------------------------------|
D|-5----------------------------------------33x-333x-333x-333x-355x-55555-5555555-|

Verse
"I can see its not the first time..."
3.
G|-----------------------------------------------------------------|
D|-----------------------------------------------------------------|
A|-----------------00------00----------------------00------00------|
D|-333x----555x------5x------5x----333x----555x------5x------5x----|

"You took her once, shame on you..."
4.
G|-----------------------------------------------------------------------|
D|-----------------------------------------------------------------------|
A|------------------0~-0-0-0----------------------------0~-0-0-0---------|
D|-3~-3-3-3-5-5-555----------5-5-5h7p5-3~-3-3-3-5-5-555----------2-2-222-|

Chorus
"Whisper softly..."
5.
G|-------------------------------------------------------------------|
D|-------------------------------------0~-0~-2~-2~-33333333-33335555-|
A|-33333333-33333333/88888888-88888888-------------------------------|
D|-------------------------------------------------------------------|

"Please forgive me..."
6.
G|-------------------------------------------------------------------------------------|
D|-------------------------------------------------------------------------------------|
A|-33333333-33333333-------------------------------------------------------------------|
D|-------------------33333333-33333333-0~-0~-2~-2~-3~-3~-5~-5~-0~-0~-2~-2~-3~-3~-5~-5~-|

Verse
"Do you realize its over..."
7.
G|-----------------------------------------------------------------|
D|-----------------------------------------------------------------|
A|-----------------00------00----------------------00------00------|
D|-333x----555x------5x------5x----333x----555x------5x------5x----|

"You took her once, shame on you..."
8.
G|-----------------------------------------------------------------------|
D|-----------------------------------------------------------------------|
A|------------------0~-0-0-0----------------------------0~-0-0-0---------|
D|-3~-3-3-3-5-5-555----------5-5-5h7p5-3~-3-3-3-5-5-555----------2-2-222-|

Chorus
"Whisper softly..."
9.
G|-------------------------------------------------------------------|
D|-------------------------------------0~-0~-2~-2~-33333333-33335555-|
A|-33333333-33333333/88888888-88888888-------------------------------|
D|-------------------------------------------------------------------|

"Please forgive me..."
10.
G|-------------------------------------------------------------------------------------|
D|-------------------------------------------------------------------------------------|
A|-33333333-33333333-------------------------------------------------------------------|
D|-------------------33333333-33333333-0~-0~-2~-2~-3~-3~-5~-5~-0~-0~-2~-2~-3~-3~-5~-5~-|

Outro
"Ive lost it all..."
11.
G|-----------------------------------------|
D|-----------------------------------------|
A|-0~--------------------------------------|
D|-----------5~--------2~--------3~--------|

Bridge
"You've ripped out my heart..."
12.
G|---------------------------------------------------------------------------------|
D|---------------------------------------------------------------------------------|
A|-000x-000x-000x-000x-------------------------------------------------------------|--x2
D|---------------------555x-555x-555x-555x-222x-222x-222x-222x-333x-333x-333x-333x-|

"If I have to go..."
13.
G|---------------------------------------------------------------------------------|
D|---------------------------------------------------------------------------------|
A|-000x-000x-000x-000x-------------------------------------------------------------|
D|---------------------555x-555x-555x-555x-222x-222x-222x-222x-333x-333x-3x--------|

Chorus
"Whisper softly..."
14.
G|-------------------------------------------------------------------|
D|-------------------------------------0~-0~-2~-2~-33333333-33335555-|
A|-33333333-33333333/88888888-88888888-------------------------------|
D|-------------------------------------------------------------------|

"Please forgive me..."
15.
G|-------------------------------------------------------------------------------------|
D|-------------------------------------------------------------------------------------|
A|-33333333-33333333-------------------------------------------------------------------|
D|-------------------33333333-33333333-0~-0~-2~-2~-3~-3~-5~-5~-0~-0~-2~-2~-3~-3~-5~-5~-|

Outro
"I've lost it all..."
16.
G|-------------------------------------------------------|
D|-------------------------------------------------------|
A|-------------------------------------------------------|
D|-0~--------2~--------3~--------------------------------|


Please rate!


Lyrics:

So I'm thinking we should maybe just run away from here.
With no plan of coming back.
We can stay away forever, our anguished love will be all we have.
And I will save your life.
It's happening again, it's happening again.
I won't watch you die.
It's happening again, it's happening again.

I can see it's not the first time you have come and taken her from me.
Rest assured it's not the last time, I'm going to set you free.
You took her once, shame on you.
You took her twice, shame on me.

Whisper softly and tell me you love me.
I'm losing you, I don't know what to do.
Please forgive me and know that I am sorry.
I'm losing you, I don't know what to do.
Trapped inside a memory, I'm falling apart.

Do you realize it's over?
There's no chance of leaving here alive.
You don't realize what you're saying, without me you can't survive.
You took her once, shame on you.
You took her twice, shame on me.

I'm falling apart, you've ripped out my heart.
I'm falling apart, I don't know where to start.
I don't want to go, it's happening again, it's happening again
But I can't let it show, I'll be with her again, together till the end.
If I have to go, it's happening again, it's happening again
I'll be damned if I'm alone, I'll be with her again.

I've lost it all.



+++++++++++++++++++++++++++++++++
| RaiLeff                       |
| Underground__Dora@Hotmail.Com |
+++++++++++++++++++++++++++++++++

            
            
Suggest correction
Creating personal tab
Creating personal tab
You can edit any tab online and save it as your Personal.

You can edit, replace or remove any tab part or add personal notes – all changes will be seen only by you.

Personal tabs can be accessed anytime from any device, even offline.
Learn more »
Give kudos to tab author, rate the tab!
1 2 3 4 5
comments
print report bad tab
guest
You may want to rate the tab now too:
select rating
Wanna post a correction for this tab? Suggest correction