Oops, an error
Loading. Please wait.

Last Three Letters tab

version 2
version 2

Whole song

Interactive

by Alesana
9,230 views 1 this week
1 commentread comment
1 2 3 4 5
1 last vote to show rating
add to favorites
×
Save as Personal and add changes to this tab that will be seen only by you. Learn more ›
×
You can save this tab as Personal to edit and correct it or add notes. All changes will be seen only by you. Learn more »
launch autoscroll
font size
0
reset
how to read this tab
guitar tuner
edit
Autoscroll
slow
fast
+/-
esc
set tempo
stop
-------------------------------------------------------------------------------
                             Alesana - The last three letters
-------------------------------------------------------------------------------
Tabbed by:Francis
Email: f_sario@yahoo.com
Location - Lucena City Quezon Phils.

hoy!!!magthanks kayo dito,,,,heheheh...kung me reklamo  itxt nyo to'...
-09283150081

Tuning:Drop D

Intro/verse-
GtrI Do 4x
0:00
|---------------8------------------8-----------------8--------|
|----------8------------------8-----------------8-------------|
|----10-----------------10----------------10------------------|
|-10----10---10------10----10---10-----10----10---10----------|2x
|-------------------------------------------------------------|
|-------------------------------------------------------------|

|---------------------------------------------------------------------------|
|---------------------------------------------------------------------------|
|----10----9---10--------10---12---10-------10----9---10------10----12--10--|
|-10----10---10------10----10---10------10----10---10------10----10---10----|
|---------------------------------------------------------------------------|
|---------------------------------------------------------------------------|

GtrII
0:03
2x
|---------------------------------------------------------------------------|
|---------------------------------------------------------------------------|
|---------------------------------------------------------------------------|
|-----------------------------0-0-0-0-0--000-00-00--0-0-0-0-0--000-00-00----|
|-8-8-8-8-8-8-10-10-10-10-10--0-0-0-0-0--000-00-00--0-0-0-0-0--000-00-00----|
|-8-8-8-8-8-8-10-10-10-10-10--0-0-0-0-0--000-00-00--0-0-0-0-0--000-00-00----|
  * * * * * * *  *  *  *  *   * * * * *  *** ** **  * * * * *  *** ** **
|---------------------------------------------------------------------------|
|-------------------------11--11--11/13-------------------13---13---13------|
|-------------------------12--12--12/14-------------------14---14---14------|
|---------------------------------------000000000000000000x----x----x-------|
|-88888888888-1010101010101010101010-12-00000000000000000012-0-12-0-12------|
|-88888888888-1010101010101010101010----000000000000000000---0----0---------|
  *********** * * * * * *   *   *       ******************   *    *  
|----------------------------------------------------------------------|
|-------------------------11--11--11/13--------------------------------|
|-------------------------12--12--12/14-------------141414141414-14/---|
|---------------------------------------00000000000--------------------|
|-88888888888-1010101010101010101010-12-00000000000-121212121212-12/---|
|-88888888888-1010101010101010101010----00000000000-121212121212-12/---|
  *********** * * * * * *   *   *       *********** 

O:36
GtrI
|---------------------------------------------------------------------------|
|---------------------------------------------------------------------------|
|---------------------------------------------------------------------------|
|-0--0--0--0--10-10-10-10-8--8--8--8---10-8--10---0--0--0--0--0--0--0--0----|
|-0--0--0--0--10-10-10-10-8--8--8--8---10-8--10---0--0--0--0--0--0--0--0----|
|-0--0--0--0--10-10-10-10-8--8--8--8---10-8--10---0--0--0--0--0--0--0--0----|

GtrII
|---------------------------------------------------------------------------|
|---------------------------------------------------------------------------|
|-14-14-14-14-12-12-12-12-10-10-10-10--12-10-12---14-14-14-14-14-14-14-14---|
|---------------------------------------------------------------------------|
|-12-12-12-12-10-10-10-10-8--8--8--8---10-8--10---12-12-12-12-12-12-12-12---|
|---------------------------------------------------------------------------|

0:43
GtrI
|--------------------------------------------|
|--------------------------------------------|
|--------------------------------------------|
|-7-7--8-8--8-8--10-10--8-8--7-7-------------|
|-7-7--8-8--8-8--10-10--8-8--7-7-------------|
|-7-7--8-8--8-8--10-10--8-8--7-7-------------|
  * *  * *  * *  *  *   * *  * * 

|--------------------------------------------|
|--------------------------------------------|
|-7-7--9-9--10-10--7-7--9-9--10-10-----------|
|--------------------------------------------|
|-5-5--7-7--8--8---5-5--7-7--8--8------------|
|--------------------------------------------|

GtrI
|---------------------------------------------------------------------------|
|---------------------------------------------------------------------------|
|---------------------------------------------------------------------------|
|-0--0--0--0--10-10-10-10-8--8--8--8---10-8--10---000-0-000-0-000-0-10~-----|
|-0--0--0--0--10-10-10-10-8--8--8--8---10-8--10---000-0-000-0-000-0-10~-----|
|-0--0--0--0--10-10-10-10-8--8--8--8---10-8--10---000-0-000-0-000-0-10~-----|

GtrII
|---------------------------------------------------------------------------|
|-141414-14-121212-12--101010-10-12-10-12-141414-14-141414-14-141414-14-12~-|
|---------------------------------------------------------------------------|
|-121212-12-101010-10--8-8-8--8--10-8--10-121212-12-121212-12-121212-12-10~-|
|---------------------------------------------------------------------------|


0:53

|-10-------------12-s13-12-10-8-10----10-------------12-s13-12-10-8-10------|
|----13-10----10--------------------------13-10----10-----------------------|
|----------12-----------------------------------12--------------------------|
|---------------------------------------------------------------------------|
|---------------------------------------------------------------------------|
|---------------------------------------------------------------------------|

|---------------------------------------------------------------------------|
|---------------------------------------------------------------------------|
|---------------------------------------------------------------------------|
|---------------------------------------------------------------------------|
|-8-8-8-8-8-8-8-8-8-8-8-8-8-8-8-8----1010101010101010101010101010101010-----|
|-8-8-8-8-8-8-8-8-8-8-8-8-8-8-8-8----1010101010101010101010101010101010-----|

0:59
do 2x
GtrI
|-10-8----12-10--------------10-8------------13-12--------------------------|
|---------------------------------------------------------------------------|
|---------------------------------------------------------------------------|
|---------------------------------------------------------------------------|
|---------------------------------------------------------------------------|
|---------------------------------------------------------------------------|
GtrII
|---------------------------------------------------------------------------|
|---------------------------------------------------------------------------|
|-----------------14/15-1515-------------------------10/12-1212-------------|
|-0-0------0-0--------------------------------------------------------------|
|-0-0------0-0----12/13-1313--0-0---------------0-0--8/10-1010--------------|
|-0-0------0-0----------------0-0---------------0-0-------------------------|
  * *      * *                * *               * *
1:16

|--------0--------0--------0-------0------------0-------0--------0-------0--|
|---------------------------------------------------------------------------|
|-10--10---10--10---10--10---10--10------10--9----10--9----10--9----10--9---|
|---10-------10-------10-------10----------10-------10-------10-------10----|
|---------------------------------------------------------------------------|
|---------------------------------------------------------------------------|

Both Gtrs
|-----------------------------------------------------------------|
|-----------------------------------------------------------------|
|--------------------------------------------------14-12----------|
|-00-xxx-00-x-00-xxx--88-1010--00-xxx-00-x-00-xxx--12-10~---------|
|-00-xxx-00-x-00-xxx--88-1010--00-xxx-00-x-00-xxx--12-10~---------|
|-00-xxx-00-x-00-xxx--88-1010--00-xxx-00-x-00-xxx--12-10~---------|

1:39
GtrI
|---------------------------------------------------------------------------|
|---------------------------------------------------------------------------|
|-10~-----------------------------------------------------------------------|
|-8~-------14~-------12~----------------------8-8-8--10---------------------|
|-8~-------10~-------12~------121212-101010---8-8-8--10---------------------|
|-8~-------10~-------12~----------------------8-8-8--10---------------------|


|---------------------------------------------------------------------------|
|---------------------------------------------------------------------------|
|--------------------------------------------101010-12----------------------|
|---------------------------------------------------------------------------|
|--------------------------------------------8-8-8--10----------------------|
|---------------------------------------------------------------------------|

Do 0:53 and 0:59

2:11
|---------------------------------------------------------------------------|
|-----8---6---------8---6---5h6-------8---6---------8---6----------8---6----|
|-0-5---5---5---0-5---5---5-------0-5---5---5---0-5---5---5----0-5---5---5--|
|---------------------------------------------------------------------------|
|---------------------------------------------------------------------------|
|---------------------------------------------------------------------------|

|---------------------------------------------------------------------------|
|-----8---6---------8---6---5h6-------8---6---------8-----------------------|
|-0-5---5---5---0-5---5---5-------0-5---5---5---0-5---5--9p7-10p7-9p7-------|
|---------------------------------------------------------------------------|
|---------------------------------------------------------------------------|
|---------------------------------------------------------------------------|

GtrII
|---------------------------------------------------------------------------|
|---------------------------------------------------------------------------|
|---------------------------------------------------------------------------|
|-0~---------8~-----------10~-----------0~----------8~------------10~-------|
|-0~---------8~-----------10~-----------0~----------8~------------10~-------|
|-0~---------8~-----------10~-----------0~----------8~------------10~-------|


|---------------------------------------------------------------------------|
|---------------------------------------------------------------------------|
|---------------------------------------------------------------------------|
|------------8~-----------10~-----------------------8~------------10~-------|
|-Drums------8~-----------10~--------Drums----------8~------------10~-------|
|------------8~-----------10~-----------------------8~------------10~-------|
                                      
2:34

do 2x
GtrI
|-------------------------------------------|
|-----------------------------8-10----------|
|------------------------7-10------7-10-9~--|
|-00-0-0-0-0---88-8-8-8---------------------|
|-00-0-0-0-0---88-8-8-8---------------------|
|-00-0-0-0-0---88-8-8-8---------------------|


|-----------------------------------------------------------|
|-----------------------------8-10---------------8-10-------|
|------------------------7-10------7-10-9~--7-10------10-7~-|
|-00-0-0-0-0---88-8-8-8-------------------------------------|
|-00-0-0-0-0---88-8-8-8-------------------------------------|
|-00-0-0-0-0---88-8-8-8-------------------------------------|

GtrII
|-------------------------------------------|
|-------------------------------------------|
|-------------------------------------------|
|-00-0-0-0-0---88-8-8-8-------5-7-----------|
|-00-0-0-0-0---88-8-8-8--5-8-------5-8--7~--|
|-00-0-0-0-0---88-8-8-8---------------------|


|-----------------------------------------------------------|
|-----------------------------------------------------------|
|-----------------------------------------------------------|
|-00-0-0-0-0---88-8-8-8-------5-7----------------5-7--------|
|-00-0-0-0-0---88-8-8-8--5-8-------5-8--7~--5-8-------8--5~-|
|-00-0-0-0-0---88-8-8-8-------------------------------------|

2:47

Do 2x

GtrI
|-------------------------------------------------------------------|
|--10--10--10--10--10--10--10--10--10-10-10-10--------8-10----------|
|----10--10--10--10--10--10--10--10--7--7--7--7--7-10------7-10-9~--|
|-------------------------------------------------------------------|
|-------------------------------------------------------------------|
|-------------------------------------------------------------------|


|-------------------------------------------------|
|-10--10--10--10--10--10--10--10--10-10-10-10-----|
|---10--10--10--10--10--10--10--10--7--7--7--7--7-|
|-------------------------------------------------|
|-------------------------------------------------|
|-------------------------------------------------|

|-------------------------------------------------|
|-------8-10---------------8-10-------------------|
|--7-10------7-10-9~--7-10------10-7~-------------|
|-------------------------------------------------|
|-------------------------------------------------|
|-------------------------------------------------|

GtrII
|-------------------------------------------|
|-------------------------------------------|
|-------------------------------------------|
|-00-0-0-0-0---88-8-8-8-------5-7-----------|
|-00-0-0-0-0---88-8-8-8--5-8-------5-8--7~--|
|-00-0-0-0-0---88-8-8-8---------------------|


|-----------------------------------------------------------|
|-----------------------------------------------------------|
|-----------------------------------------------------------|
|-00-0-0-0-0---88-8-8-8-------5-7----------------5-7--------|
|-00-0-0-0-0---88-8-8-8--5-8-------5-8--7~--5-8-------8--5~-|
|-00-0-0-0-0---88-8-8-8-------------------------------------|


Do 0:53 and 0:59

3:22

GtrI
|---------------------------------------------------------------------------|
|---------------------------------------------------------------------------|
|---------------------------------------------------------------------------|
|-0--0--0--0--10-10-10-10-8--8--8--8---10-8--10---0--0--0--0--0--0--0--0----|
|-0--0--0--0--10-10-10-10-8--8--8--8---10-8--10---0--0--0--0--0--0--0--0----|
|-0--0--0--0--10-10-10-10-8--8--8--8---10-8--10---0--0--0--0--0--0--0--0----|

GtrII
|---------------------------------------------------------------------------|
|---------------------------------------------------------------------------|
|-14-14-14-14-12-12-12-12-10-10-10-10--12-10-12---14-14-14-14-14-14-14-14---|
|---------------------------------------------------------------------------|
|-12-12-12-12-10-10-10-10-8--8--8--8---10-8--10---12-12-12-12-12-12-12-12---|
|---------------------------------------------------------------------------|


GtrI
|--------------------------------------------|
|--------------------------------------------|
|--------------------------------------------|
|-7-7--8-8--8-8--10-10--8-8--7-7-------------|
|-7-7--8-8--8-8--10-10--8-8--7-7-------------|
|-7-7--8-8--8-8--10-10--8-8--7-7-------------|
  * *  * *  * *  *  *   * *  * * 

|--------------------------------------------|
|--------------------------------------------|
|-7-7--9-9--10-10--7-7--9-9--10-10-----------|
|--------------------------------------------|
|-5-5--7-7--8--8---5-5--7-7--8--8------------|
|--------------------------------------------|

            
            
Suggest correction
Creating personal tab
Creating personal tab
You can edit any tab online and save it as your Personal.

You can edit, replace or remove any tab part or add personal notes – all changes will be seen only by you.

Personal tabs can be accessed anytime from any device, even offline.
Learn more »
Give kudos to tab author, rate the tab!
1 2 3 4 5
comments
print report bad tab
1 comment total.
0 reply
Escaped14 55 Dec 17, 2008 12:26 AM

Tol ok 2, lyrics nlang kulang.. hehe!!

guest
You may want to rate the tab now too:
select rating
Wanna post a correction for this tab? Suggest correction